Oops, an error
Loading. Please wait.

Into Your Dream tab

version 2
version 2

Whole song

188 views 1 this week
2 commentsread comments
1 2 3 4 5
2 more votes to show rating
add to favorites
×
Save as Personal and add changes to this tab that will be seen only by you. Learn more ›
×
You can save this tab as Personal to edit and correct it or add notes. All changes will be seen only by you. Learn more »
launch autoscroll
font size
0
reset
how to read this tab
guitar tuner
edit
Autoscroll
slow
fast
+/-
esc
set tempo
stop
Author
Difficulty
-------------------------------------------------------------------------------
                             Into Your Dream - Foreign Born
-------------------------------------------------------------------------------
Tabbed by: dethmij
E-mail: dethmij@gmail.com

Tuning: Standard

e|-------------------------|
B|-------------------------|
G|-------------------------|   x14
D|-------------------6-6-4-|
A|-----------7-7-5-5-------|
E|-7-7-5-7-5---------------|

e|-9-9-9-9-9-9-9-9-8-8-8-8-8-8-8-8-9-9-9-9-9-9-9-9-8-8-8-8-8-8-8-8-|
B|-9-9-9-9-9-9-9-9-8-8-8-8-8-8-8-8-9-9-9-9-9-9-9-9-8-8-8-8-8-8-8-8-|
G|-----------------------------------------------------------------|
D|-----------------------------------------------------------------|
A|-----------------------------------------------------------------|
E|-----------------------------------------------------------------|

e|-------------------------|
B|-------------------------|
G|-------------------------|   x9
D|-------------------6-6-4-|
A|-----------7-7-5-5-------|
E|-7-7-5-7-5---------------|

e|-9-9-9-9-9-9-9-9-8-8-8-8-8-8-8-8-9-9-9-9-9-9-9-9-8-8-8-8-8-8-8-8-|
B|-9-9-9-9-9-9-9-9-8-8-8-8-8-8-8-8-9-9-9-9-9-9-9-9-8-8-8-8-8-8-8-8-|
G|-----------------------------------------------------------------|
D|-----------------------------------------------------------------|
A|-----------------------------------------------------------------|
E|-----------------------------------------------------------------|

e|-----------------------------------------------------------------------------|
B|---0---0-------0---0---0---0---0-------0-----0-----0---0---0-----0---0---0---|
G|-7---7---7-6-4---4---4---7---7---7-6-4---4-1---1-7---7---7---7-9---9---9---9-|
D|-----------------------------------------------------------------------------|
A|-----------------------------------------------------------------------------|
E|-----------------------------------------------------------------------------|

e|---------------------------------------------------------------------------------|
B|----0----0----0-------0----0----0----------------0-------0-------------0----0----|
G|-11---11---11---11-13---13---13---13-13b14-13b14---13b14---13b14-13-13---13---13-|
D|---------------------------------------------------------------------------------|
A|---------------------------------------------------------------------------------|
E|---------------------------------------------------------------------------------|

e|-------------------------------------------------------------------------|
B|-------------0-------0-------------0----0--------------------------------|
G|-13b14-13b14---13b14---13b14-13-13---13---13-13b-13b-13b-13b-13b-13b-13b-|
D|-------------------------------------------------------------------------|
A|-------------------------------------------------------------------------|
E|-------------------------------------------------------------------------|
Bend 13 gradually until it harmonizes with the open 2nd string, or otherwise sounds like 
the 16th fret.

e|---------------------------------------------------------------------------|
B|-------0-------0-------0-------0-------0-------0-------0-------0-----------|
G|-13b16---13b16---13b16---13b16---13b16---13b16---13b16---13b16---13b16-----|
D|---------------------------------------------------------------------------|
A|---------------------------------------------------------------------------|
E|---------------------------------------------------------------------------|

   1 e + a  Trplt  Trplt  4 e + a
e|-7---7-7--7-7-7--x-x-x--x-x-x-x-|
B|-9---9-9--9-9-9--7-7-7--7-7-7-7-|
G|-9---9-9--9-9-9--9-9-9--9-9-9-9-| x7
D|-8---8-8--8-8-8--9-9-9--9-9-9-9-|
A|-7---7-7--7-7-7--9-9-9--9-9-9-9-|
E|-7---7-7--7-7-7--9-9-9--9-9-9-9-|
During this part the second guitar keeps playing the 13b16 part

************************************
| 13b14   Bend 13 to sound like 14
| Trplt   Triplet
| x       Mute note
| b       Bend
************************************

            
            
Suggest correction
Creating personal tab
Creating personal tab
You can edit any tab online and save it as your Personal.

You can edit, replace or remove any tab part or add personal notes – all changes will be seen only by you.

Personal tabs can be accessed anytime from any device, even offline.
Learn more »
Give kudos to tab author, rate the tab!
1 2 3 4 5
comments
print report bad tab
2 comments total.
0 reply
GeoffStelling 10 Nov 23, 2014 11:14 AM

Main Riff is alright but the rest of this tab is either wrong and sounds horrible or is pointless, for example going from fret 4 on the G string to playing an open B string even though they play the same note?

0 reply
GeoffStelling 10 Nov 23, 2014 11:17 AM

Lack of accuracy. The main riff sounds fine but the rest of the tab just doesn't sound right to me and doesn't seem to match the version of the song I have heard at least.

guest
You may want to rate the tab now too:
select rating
Wanna post a correction for this tab? Suggest correction