Oops, an error
Loading. Please wait.

Names And Races tab

version 1
version 1

Whole song

1,154 views 15 this week
1 commentread comment
1 2 3 4 5
2 more votes to show rating
add to favorites
×
Save as Personal and add changes to this tab that will be seen only by you. Learn more ›
×
You can save this tab as Personal to edit and correct it or add notes. All changes will be seen only by you. Learn more »
launch autoscroll
font size
0
reset
how to read this tab
guitar tuner
edit
Autoscroll
slow
fast
+/-
esc
set tempo
stop
Author
I've waited for years for FF to possibly release the tab or at least the tuning, but since this song is so
low key no one has heard of it. I'm a beginner guitar player and this is the first tab i've ever done.
     Enjoy. - Laufle
-- -- -- -- -- -- -- -- -- -- -- -- -- -- -- -- -- -- -- -- -- -- -- -- -- -- -- -- -- -- -- -- -- -- -- --
2nd Capo
Tuning: https://a.tumblr.com/tumblr_nraw567Ai21tvqm20o1.mp3#_=_ << i don't know the names for them.
Based off this video: https://www.youtube.com/watch?v=a6eR-Okd2t4

Notes:
ENABLE TO MAKE THINGS EASIER W PICKING:
USE YOUR THUMB FOR THE FIRST TOP 3 STRINGS. 
INDEX TO RING FINGER FOR THE BOTTOM 3 STRINGS
- Play with the song to understand the timing
- You'll repeat "Intro+Verses" section 6 times
- Each time You go into "Down, down down..." you'll repeat once. The second time you play. you 
  repeat and play the first down twice and won't play the last verse.
-- -- -- -- -- -- -- -- -- -- -- -- -- -- -- -- -- -- -- -- -- -- -- -- -- -- -- -- -- -- -- -- -- -- -- --

                             Alright this song's called Names and Races!

Intro + Verses: 

 |-----0-------0---|-----0-------0---|-----0-------0---|-----0-------0---|
 |-----------------|-----------------|-----------------|-----------------|
 |---------1-------|---------1-------|---------1-------|---------1-------|
 |---3---3---3-----|---3---3---3-----|---3---3---3-----|---3---3---3-----|
 |-2---------------|-2---------------|-2---------------|-2---------------|
 |-----------------|-----------------|-----------------|-----------------|

 |-----0-------0---|-----0-------0---|-----0-------0---|-----0-------0---|
 |-----------------|-----------------|-----------------|-----------------|
 |---------0-------|---------0-------|---------0-------|---------0-------|
 |---3---3---3-----|---3---3---3-----|---3---3---3-----|---0---0---0-----|
 |-2---------------|-2---------------|-2---------------|-0---------------|
 |-----------------|-----------------|-----------------|-----------------|

 |--------0-------0|
 |-----------------|
 |(0h)1-------1----|
 |------3---3---3--|
 |(0h)2------------|
 |-----------------|

>>Down...(2x)       Down...           Down... 
 |-----0-------0---|-----0-------0---|-----2-------0---|
 |-----------------|-----------------|-----------------|
 |---------1-------|---------1-------|---------1-------|
 |---3---3---3-----|---3---3---3-----|---3---3---3-----|
 |-2---------------|-0---------------|-0---------------|
 |-----------------|-----------------|-----------------|
                                         [Don't play the 2nd Time]               
 |-----2-------0---|-----2-------0---|((-----2-------0---|))>> REPEAT ONCE. 
 |-----------------|-----------------|((-----------------|))
 |---------1-------|---------1-------|((---------1-------|))
 |---3---3---3-----|---3---3---3-----|((---3---3---3-----|))
 |-0---------------|-----------------|((-----------------|))
 |-----------------|-----------------|((-----------------|))

 and the 

  ashes             fall...                                   on the
 |-----------------|-----2-------0---|-----2-------0---|-----2-----------|
 |-----2-----------|-----------------|-----------------|-----------------|
 |---0-------------|---------0-------|---------0-------|-----------------|
 |-0---------------|---3---3---3-----|---3---3---3-----|---3-------------|
 |-----------------|-2---------------|-----------------|-2---------------|
 |-----------------|-----------------|-----------------|-----------------|
  children's        faces...
 |-----------------|-----0-------0---|-----0-------0---|-----0-------0---|
 |-----2-----------|-----------------|-----------------|-----------------|
 |---0-------------|---------1-------|---------1-------|---------1-------|
 |-0---------------|---3---3---3-----|---3---3---3-----|---3---3---3-----|
 |-----------------|-2-----------=---|-2-----------=---|-2-----------=---|
 |-----------------|-----------------|-----------------|-----------------|

 on their

  names        and  races
 |-----------------|-----2-------0---|-----2-------0---|-----2-------0---|
 |-----2-----------|-----------------|-----------------|-----------------|
 |---0-------------|---------0-------|---------0-------|---------0-------|
 |-0---------------|---3---3---3-----|---3---3---3-----|---3---3---3-----|
 |-----------------|-2---------------|-2---------------|-2---------------|
 |-----------------|-----------------|-----------------|-----------------|
                    and here...                               at the 
 |-----2-------0---|-----2-------0---|-----2-------0---|-----2-----------|
 |-----------------|-----------------|-----------------|-----------------|
 |---------0-------|---------0-------|---------0-------|-----------------|
 |---3---3---3-----|---3---3---3-----|---3---3---3-----|---3-------------|
 |-2---------------|-2---------------|-2---------------|-2---------------|
 |-----------------|-----------------|-----------------|-----------------|

  end of            time...                                   you will 
 |-----------------|-----2-------0---|-----2-------0---|-----2-----------|
 |-----2-----------|-----------------|-----------------|-----------------|
 |---0-------------|---------0-------|---------0-------|-----------------|
 |-0---------------|---3---3---3-----|---3---3---3-----|---3-------------|
 |-----------------|-2---------------|-2---------------|-2---------------|
 |-----------------|-----------------|-----------------|-----------------|

  find us           waiting...                                on the
 |-----------------|-----0-------0---|-----0-------0---|-----0-----------|
 |-----2-----------|-----------------|-----------------|-----------------|
 |---0-------------|---------1-------|---------1-------|-----------------|
 |-0---------------|---3---3---3-----|---3---3---3-----|---3-------------|
 |-----------------|-2---------------|-2---------------|-2---------------|
 |-----------------|-----------------|-----------------|-----------------|
  seashore          fading...
 |-----------------|-----0-------0---|-----0-------0---|-----0-----------|
 |-----2-----------|-----------------|-----------------|-----------------|
 |---0-------------|---------1-------|---------1-------|-----------------|
 |-0---------------|---3---3---3-----|---3---3---3-----|---3-------------|
 |-----------------|-2---------------|-2---------------|-2---------------|
 |-----------------|-----------------|-----------------|-----------------|

REPEAT WHOLE ENTIRE THING ONCE -- -- -- -- -- -- -- -- -- -- -- -- -- -- -- -- -- -- -- -- -- -- -- -- -- --

Ah-oooh (Repeat Once) [Editing Later]
 |-----------------|-----------------|-----------------|-----------------|
 |-----------------|-----------------|-----------------|-----------------|
 |-----------------|-----------------|-----------------|-----------------|
 |-----------------|-----------------|-----------------|-----------------|
 |-----------------|-----------------|-----------------|-----------------|
 |-----------------|-----------------|-----------------|-----------------|

We're                                 still...
 |-----------------|-----------------|-----------------|-----------------|
 |-----------------|-----------------|-----------------|-----------------|
 |-----------------|-----------------|-----------------|-----------------|
 |-----------------|-----------------|-----------------|-----------------|
 |-----------------|-----------------|-----------------|-----------------|
 |-----------------|-----------------|-----------------|-----------------|

 try                                  ~ing
 |-----0-------0---|-----0-------0---|-----0-------0---|-----0-------0---|
 |-----------------|-----------------|-----------------|-----------------|
 |---------8-------|---------8-------|---------0-------|---------0-------|
 |---9---9---9-----|---9---9---9-----|---8---8---8-----|---8---8---8-----|
 |-9---------------|-9---------------|-7---------------|-7---------------|
 |-----------------|-----------------|-----------------|-----------------|
-- -- -- -- -- -- -- -- -- -- -- -- -- -- -- -- -- -- -- -- -- -- -- -- -- -- -- -- -- -- -- -- -- -- -- --

Then u just jam out w the chords you used
in the "Intro + Verses" section, 
removing the "1" and "2" when needed!

            
            
Suggest correction
Creating personal tab
Creating personal tab
You can edit any tab online and save it as your Personal.

You can edit, replace or remove any tab part or add personal notes – all changes will be seen only by you.

Personal tabs can be accessed anytime from any device, even offline.
Learn more »
Give kudos to tab author, rate the tab!
1 2 3 4 5
comments
print report bad tab
1 comment total.
0 reply
CleanMrMustard 31 Oct 01, 2015 10:09 AM

This tab is a good start, but a lot of it doesn't sound right to me. The tuning is DADF#AD (not sure if you got this right). I'll post a new version soon.

guest
You may want to rate the tab now too:
select rating
Wanna post a correction for this tab? Suggest correction