Oops, an error
Loading. Please wait.

Names And Races tab

version 2
version 2

Whole song

1,111 views 15 this week
no commentswrite comment
1 2 3 4 5
x 7
add to favorites
×
Save as Personal and add changes to this tab that will be seen only by you. Learn more ›
×
You can save this tab as Personal to edit and correct it or add notes. All changes will be seen only by you. Learn more »
launch autoscroll
font size
0
reset
how to read this tab
guitar tuner
edit
Autoscroll
slow
fast
+/-
esc
set tempo
stop
Names and Races by Foreign Fields
Tuning: open D (D A D F# A D), capo 2

I used this video (https://vimeo.com/54126255) to figure out the
tuning and capo placement. The rest was fairly easy, but I did double
check some of my chords against what he's playing. I think what I
have here is mostly right, but let me know if you have corrections.
I'm debating tabbing the electric guitar part too (we'll see). Cheers!

Tabbed by: CleanMrMustard


FIRST VERSE
|-------------|-------------|-------------|-------------|
|-----0-----0-|-----0-----0-|-----0-----0-|-----0-----0-|
|-------1-----|-------1-----|-------1-----|-------1-----|
|---0-----0---|---0-----0---|---0-----0---|---0-----0---|
|-2-----------|-2-----------|-2-----------|-2-----------|
|-------------|-------------|-------------|-------------|

|-------------|-------------|-------------|-------------|
|-----0-----0-|-----0-----0-|-----0-----0-|-----0-----0-|
|-------0-----|-------0-----|-------0-----|-------0-----|
|---0-----0---|---0-----0---|---0-----0---|---0-----0---|
|-2-----------|-2-----------|-2-----------|-0-----------|
|-------------|-------------|-------------|-------------|

    play this first bar when looping
    repeat the rest of the above section until "down, down, down"
|-------------|
|-----0-----0-|
|-0h1---1-----|
|---------0---|
|-0h2---------|
|-------------|

    after the first "down, down, down"
|-------------|-------------|-------------|-------------|
|-------0-----|-------0-----|-------0-----|-------0-----|
|-----5-----5-|-----5-----5-|-----5-----5-|-----5-----5-|
|---------0---|---------0---|---------0---|---------0---|
|---5---------|---5---------|---5---------|---5---------|
|-5-----------|-5-----------|-5-----------|-5-----------|

    second "down, down, down"
|-------------|-------------|
|-----0-----0-|-----0-----0-|
|-------0-----|-------0-----|
|---0-----0---|---0-----0---|
|-2-----------|-0-----------|
|-------------|-------------|

|-------------|-------------|-------------|-------------|
|-------0-----|-------0-----|-------0-----|-------0-----|
|-----5-----5-|-----5-----5-|-----5-----5-|-----5-----5-|
|---------0---|---------0---|---------0---|---------0---|
|---5---------|---5---------|---5---------|---5---------|
|-5-----------|-5-----------|-5-----------|-5-----------|



FIRST CHORUS ("And the ashes fall...")
|-------------|-------------|-------------|-------------|
|-------0-----|-------0-----|-------0-----|-------0-----|
|-----7-----7-|-----5-----5-|-----5-----5-|-----5-----5-|
|---------0---|---------0---|---------0---|---------0---|
|---7---------|---5---------|---5---------|---5---------|
|-7-----------|-5-----------|-5-----------|-5-----------|

|-------------|-------------|-------------|-------------|
|-------0-----|-----0-----0-|-----0-----0-|-----0-----0-|
|-----8-----8-|-------0-----|-------0-----|-------0-----|
|---------0---|---------0---|---------0---|---------0---|
|---9---------|---4---------|---4---------|---4---------|
|-9-----------|-4-----------|-4-----------|-4-----------|

|-------------|-------------|-------------|-------------|
|-------0-----|-------0-----|-------0-----|-------0-----|
|-----7-----7-|-----5-----5-|-----5-----5-|-----5-----5-|
|---------0---|---------0---|---------0---|---------0---|
|---7---------|---5---------|---5---------|---5---------|
|-7-----------|-5-----------|-5-----------|-5-----------|

    "And here, at the end of time..."
|-------------|-------------|-------------|-------------|
|-------0-----|-------0-----|-------0-----|-------0-----|
|-----5-----5-|-----5-----5-|-----5-----5-|-----7-----7-|
|---------0---|---------0---|---------0---|---------0---|
|---5---------|---5---------|---5---------|---7---------|
|-5-----------|-5-----------|-5-----------|-7-----------|

|-------------|-------------|-------------|-------------|
|-------0-----|-------0-----|-------0-----|-------0-----|
|-----5-----5-|-----5-----5-|-----5-----5-|-----8-----8-|
|---------0---|---------0---|---------0---|---------0---|
|---5---------|---5---------|---5---------|---9---------|
|-5-----------|-5-----------|-5-----------|-9-----------|

|-------------|-------------|-------------|-------------|
|-----0-----0-|-----0-----0-|-----0-----0-|-------0-----|
|-------0-----|-------0-----|-------0-----|-----7-----7-|
|---------0---|---------0---|---------0---|---------0---|
|---4---------|---4---------|---4---------|---7---------|
|-4-----------|-4-----------|-4-----------|-7-----------|

|-------------|-------------|-------------|-------------|
|-------0-----|-------0-----|-------0-----|-------0-----|
|-----5-----5-|-----5-----5-|-----5-----5-|-----5-----5-|
|---------0---|---------0---|---------0---|---------0---|
|---5---------|---5---------|---5---------|---5---------|
|-5-----------|-5-----------|-5-----------|-5-----------|


SECOND VERSE (same as first verse)

SECOND CHORUS (same as first chorus)

OUTRO
    repeat until the whole band joins
|-------------|-------------|-------------|-------------|
|-------0-----|-------0-----|-------0-----|-------0-----|
|-----8-----8-|-----8-----8-|-----8-----8-|-----8-----8-|
|---------0---|---------0---|---------0---|---------0---|
|---9---------|---9---------|---9---------|---9---------|
|-9-----------|-9-----------|-9-----------|-9-----------|

|-------------|-------------|-------------|-------------|
|-------0-----|-------0-----|-------0-----|-------0-----|
|-----8-----8-|-----8-----8-|-----7-----7-|-----7-----7-|
|---------0---|---------0---|---------0---|---------0---|
|---9---------|---9---------|---7---------|---7---------|
|-7-----------|-7-----------|-7-----------|-7-----------|

    whole band starts playing (listen to the bass line to get the timing right)
|-------------|-------------|-------------|-------------|
|-------0-----|-------0-----|-------0-----|-------0-----|
|-----5-----5-|-----8-----8-|-----8-----8-|-----5-----5-|
|---------0---|---------0---|---------0---|---------0---|
|---5---------|---9---------|---9---------|---5---------|
|-5-----------|-9-----------|-7-----------|-5-----------|

|-------------|-------------|-------------|-------------|
|-------0-----|-------0-----|-------0-----|-------0-----|
|-----8-----8-|-----8-----8-|-----7-----7-|-----5-----5-|
|---------0---|---------0---|---------0---|---------0---|
|---9---------|---9---------|---7---------|---5---------|
|-9-----------|-7-----------|-7-----------|-5-----------|

|-------------|-------------|-------------|-------------|
|-------0-----|-------0-----|-------0-----|-------0-----|
|-----8-----8-|-----8-----8-|-----5-----5-|-----8-----8-|
|---------0---|---------0---|---------0---|---------0---|
|---9---------|---9---------|---5---------|---9---------|
|-9-----------|-7-----------|-5-----------|-9-----------|

|-------------|-------------|-------------|-------------|
|-------0-----|-------0-----|-------0-----|-------0-----|
|-----0-----0-|-----7-----7-|-----5-----5-|-----8-----8-|
|---------0---|---------0---|---------0---|---------0---|
|---4---------|---7---------|---5---------|---9---------|
|-4-----------|-7-----------|-5-----------|-9-----------|

|-------------|-------------|-------------|-------------|
|-------0-----|-------0-----|-------0-----|-------0-----|
|-----8-----8-|-----5-----5-|-----8-----8-|-----8-----8-|
|---------0---|---------0---|---------0---|---------0---|
|---9---------|---5---------|---9---------|---9---------|
|-7-----------|-5-----------|-9-----------|-7-----------|

|-------------|-------------|-------------|-------------|
|-------0-----|-------0-----|-------0-----|-------0-----|
|-----7-----7-|-----5-----5-|-----8-----8-|-----8-----8-|
|---------0---|---------0---|---------0---|---------0---|
|---7---------|---5---------|---9---------|---9---------|
|-7-----------|-5-----------|-9-----------|-7-----------|

|-------------|-------------|-------------|-------------|
|-------0-----|-------0-----|-------0-----|-------0-----|
|-----5-----5-|-----8-----8-|-----0-----0-|-----7-----7-|
|---------0---|---------0---|---------0---|---------0---|
|---5---------|---9---------|---4---------|---7---------|
|-5-----------|-9-----------|-4-----------|-7-----------|

|-------------|
|-------------|
|-------------|
|-------------|
|-------------|
|-5-----------|

            
            
Suggest correction
Creating personal tab
Creating personal tab
You can edit any tab online and save it as your Personal.

You can edit, replace or remove any tab part or add personal notes – all changes will be seen only by you.

Personal tabs can be accessed anytime from any device, even offline.
Learn more »
comments
print report bad tab
guest
You may want to rate the tab now too:
select rating
Wanna post a correction for this tab? Suggest correction