Oops, an error
Loading. Please wait.

Blue Morning Blue Day tab

version 3
version 3

Whole song

  • The notes are spaced a little better here than on ... Show more

Interactive

241 views 9 this week
no commentswrite comment
1 2 3 4 5
3 more votes to show rating
add to favorites
×
Save as Personal and add changes to this tab that will be seen only by you. Learn more ›
×
You can save this tab as Personal to edit and correct it or add notes. All changes will be seen only by you. Learn more »
launch autoscroll
font size
0
reset
how to read this tab
guitar tuner
backing track
0:00
0:00
edit
Autoscroll
slow
fast
+/-
esc
set tempo
stop
Author
Difficulty
About this tab version
The notes are spaced a little better here than on other tabs for this. Plus, it seems more complete from beginning to end. All leads sound doubled tracked on the album. Was this info helpful? Yes No
Blue Morning, Blue Day, by: Foreigner. Standard Tuning

[Intro]

e|-------------------------------------------------------------------|
b|-------------------------------------------------------------------|
g|-------------------------------------------------------------------|
d|------------------------------4-3-4--4-3-5-------------------------|
a|--2-1-2---1-2-4-5-4-5---4-5----------------------------------------|
e|-------------------------------------------------------------------|

e|-------------------------------------------------------------------|
b|---------------------------------------------12----15\-------------|
g|------------------------------------------------12-----------------|
d|------------------------------4-3-4--4-3-5-------------------------|
a|--2-1-2---1-2-4-5-4-5---4-5----------------------------------------|
e|-------------------------------------------------------------------|


[Verse 1]

Play it the first three times like this:
e|-------------------------------------------------------------------|
b|-------------------------------------------------------------------|
g|-------------------------------------------------------------------|
d|-------------------------------------------------------------------|
a|--------2-5--2---0--4------2--5------------------------------------|
e|--2-5-------------------3------------------------------------------|

The last time like this:
e|-------------------------------------------------------------------|
b|-------------------------------------------------------------------|
g|-------------------------------------------------------------------|
d|-------------------------------------------------------------------|
a|--------2-5--2---0--4----------------------------------------------|
e|--2-5-------------------3-2-3-2--3--2------------------------------|


[Chorus]

Like this:
e|-------------------------------------------------------------------|
b|-------------------------------------------------------------------|
g|--4--------------------------4-------------------------------------|
d|--4------x-x-5-------4-------4-------------------------------------|
a|--2------x-x-5-------4-----0-2-------------------------------------|
e|---------x-x-3-----0-2---------------------------------------------|

Or like this:
e|-------------------------------------------------------------------|
b|-------------------------------------------------------------------|
g|---4---------------------------------------------------------------|
d|---4------x-x-5----------------------------------------------------|
a|---2------x-x-5-------------0-2------------------------------------|
e|-0--------x-x-3-----0-2--------------------------------------------|

Then the intro part again like this:
e|-------------------------------------------------------------------|
b|-------------------------------------------------------------------|
g|-------------------------------------------------------------------|
d|------------------------------4-3-4--4-3-5-------------------------|
a|--2-1-2---1-2-4-5-4-5---4-5----------------------------------------|
e|-------------------------------------------------------------------|


[Verse 2]

Play it the first two times like this:
e|-------------------------------------------------------------------|
b|-------------------------------------------------------------------|
g|-------------------------------------------------------------------|
d|-------------------------------------------------------------------|
a|--------2-5--2---0--4------2--5------------------------------------|
e|--2-5-------------------3------------------------------------------|

The third time like this:
e|-------------------------------------------------------------------|
b|-------------------------------------------------------------------|
g|-------------------------------------------------------------------|
d|-------------------------------------------------------------------|
a|----------------2-5--2---0--4------2--5----------------------------|
e|--2-2-2--5-5-5-------------------3---------------------------------|

The last time like this:
e|-------------------------------------------------------------------|
b|-------------------------------------------------------------------|
g|-------------------------------------------------------------------|
d|-------------------------------------------------------------------|
a|--------2-5--2---0--4----------------------------------------------|
e|--2-5-------------------3-2-3-2--3--2------------------------------|


[Chorus 2]

Like this twice:
e|-------------------x-x-7--7---6----6-------------------------------|
b|-------------------x-x-7--7---7--7---7-----------------------------|
g|--4----------------x-x-6--6---6----------------4--4-2--------------|
d|--4------x-x-5---------------------------------4--4-2--------------|
a|--2------x-x-5------------------------------0--2--2-2--------------|
e|---------x-x-3---------------------------2-------------------------|


[Solo]

e|-------------------------------------------------9--/-14---------14------17\---|
b|--12b13r12b14-11-----12b14r12--11------------------------14-15-------15--------|
g|----------------------------------12-------11-14-------------------------------|
d|----------------------------------------11-------------------------------------|
a|-------------------------------------------------------------------------------|
e|-------------------------------------------------------------------------------|

(fast)
e|-------------------------------------------------------------------|
b|--9h10p9----------9h10p9----------9h10p9---------------------------|
g|---------11-9------------11-9------------11------------------------|
d|--------------11--------------11-----------------------------------|
a|-------------------------------------------------------------------|
e|-------------------------------------------------------------------|

e|--9h10p9----------9h10p9-------------------------------------------|
b|---------10-9------------10-9-----9h10p9---------------------------|
g|--------------11--------------11------------11---------------------|
d|-------------------------------------------------------------------|
a|-------------------------------------------------------------------|
e|-------------------------------------------------------------------|

e|---------14-16b17r16-14---------16--17\----------------------------|
b|------14-----------------17b19-------------------------------------|
g|--/14--------------------------------------------------------------|
d|-------------------------------------------------------------------|
a|-------------------------------------------------------------------|
e|-------------------------------------------------------------------|


[Chorus 3]

Like this once:
e|-------------------x-x-7--7---6----6-------------------------------|
b|-------------------x-x-7--7---7--7---7-----------------------------|
g|--4----------------x-x-6--6---6----------------4--4-2--------------|
d|--4------x-x-5---------------------------------4--4-2--------------|
a|--2------x-x-5------------------------------0--2--2-2--------------|
e|---------x-x-3---------------------------2-------------------------|

Then like this once:
e|-------------------x-x-7--7---6----6-------------------------------|
b|-------------------x-x-7--7---7--7---7-----------------------------|
g|--4----------------x-x-6--6---6------------------------------------|
d|--4------x-x-5-----------------------------------------------------|
a|--2------x-x-5------------------------------0--2-------------------|
e|---------x-x-3---------------------------2-------------------------|


[Pre-Outro]

(high parts sound like they are on a 2nd guitar)
e|-----------------------------------------------15b17r15-14-----|
b|--------------12-------------------------12-15-----------------|
g|--4--------------12-9-11--4-----------12-----------------------|
d|--4----x-x-5--------------4----x-x-5---------------------------|
a|--2----x-x-5--------------2----x-x-5---------------------------|
e|-------x-x-3-------------------x-x-3---------------------------|

e|-------------------------------------------------------------------|
b|--------------12---------------------------------------------------|
g|--4--------------12-9-11--4-4-4-4-4-4-4-4--------------------------|
d|--4----x-x-5--------------4-4-4-4-4-4-4-4-5-5-5-5------------------|
a|--2----x-x-5--------------2-2-2-2-2-2-2-2-5-5-5-5------------------|
e|-------x-x-3------------------------------3-3-3-3-3-2-3-2----------|


[Outro]

Right into this:
e|-------------------------------------------------------------------|
b|---------------------------------------------12----15\-------------|
g|-----------------------------------------12-----12-----------------|
d|------------------------------4-3-4--4-3---------------------------|
a|--2-1-2---1-2-4-5-4-5---4-5----------------------------------------|
e|-------------------------------------------------------------------|

e|--------------------------------------------------13-15-17-19\-----|
b|--------------------------------------------12-15---16-------------|
g|-----------------------------------------12-------12---------------|
d|------------------------------4-3-4--4-3---------------------------|
a|--2-1-2---1-2-4-5-4-5---4-5----------------------------------------|
e|-------------------------------------------------------------------|



************************************

| x  Dead note
| h  Hammer-on
| p  Pull-off
| r  Release
| b  Bend
| /  Slide up
| \  Slide down

************************************

            
            
Suggest correction
Creating personal tab
Creating personal tab
You can edit any tab online and save it as your Personal.

You can edit, replace or remove any tab part or add personal notes – all changes will be seen only by you.

Personal tabs can be accessed anytime from any device, even offline.
Learn more »
Give kudos to tab author, rate the tab!
1 2 3 4 5
comments
print report bad tab
guest
You may want to rate the tab now too:
select rating
Wanna post a correction for this tab? Suggest correction