Oops, an error
Loading. Please wait.

Cold As Ice solo tab

version 4
version 4

Whole song

Interactive

19,882 views 66 this week
4 commentsread comments
1 2 3 4 5
x 14
add to favorites
×
Save as Personal and add changes to this tab that will be seen only by you. Learn more ›
×
You can save this tab as Personal to edit and correct it or add notes. All changes will be seen only by you. Learn more »
launch autoscroll
font size
0
reset
how to read this tab
guitar tuner
backing track
0:00
0:00
edit
Autoscroll
slow
fast
+/-
esc
set tempo
stop
Author
Difficulty
I wasn't able to really find any good tabs for this anywhere, so I ended up just watching
it live and seeing some people cover it. I think it's pretty spot on...

Well, here it is-
  <-------From here to-------------------------->
  {  there you can do hammer ons and pull offs  }
  {  if you want, but i don't                   }
e[-------------------------------7-6-7--11-10-11--14----18--14----]
B[-------------------------7-6-7-------------------------------16-]
G[-------------------8-7-8----------------------------------------]
D[-------------9-8-9----------------------------------------------]
A[-------9-8-9----------------------------------------------------]
E[-7-6-7----------------------------------------------------------]
Between 7 and 11 theres no optional pull or hammer on. Unless you already found som way 
make that work or something...

[---------14//18--14------------]
[---------------------16-14-16--]
[-------------------------------]
[-------------------------------]
[-------------------------------]
[-------------------------------]


Then...
Again, optional pull offs and hammer ons.
[-------------------------------7-6-7-11-11--9---------]
[-------------------------7-6-7----------------12--11--]
[-------------------8-7-8------------------------------]
[-------------9-8-9------------------------------------]
[-------9-8-9------------------------------------------]
[-7-6-7------------------------------------------------]


Key:
/ = slide
Um, that's the only real  thing i used.

Well, it's a pretty cool solo, not too hard but sounds cool.
Rock on. Peace

            
            
Suggest correction
Creating personal tab
Creating personal tab
You can edit any tab online and save it as your Personal.

You can edit, replace or remove any tab part or add personal notes – all changes will be seen only by you.

Personal tabs can be accessed anytime from any device, even offline.
Learn more »
comments
print report bad tab
4 comments total. Showing first comments.
0 reply
Phycopath09 664 Jul 02, 2010 03:14 PM

Im the that first approved of this tab, and I have to say this. It's absolutely perfect. I cant believe how amazing it is. Keep it up.

0 reply
bladedguitar66 219 Jul 07, 2010 09:11 AM

Excellent job, 5 stars! ***** Thank you!

+2 reply
jguitarwarrior 10 Aug 22, 2014 12:48 PM

Great tab! Definately five stars, but i think you just missed the 14, 13 back and forth before sliding to 18. It may be just me, but great work either way.

e[-------------------------------7-6-7--11-10-11--14-13-14/18--14----]
B[-------------------------7-6-7----------------------------------16-]
G[-------------------8-7-8-------------------------------------------]
D[-------------9-8-9-------------------------------------------------]
A[-------9-8-9-------------------------------------------------------]
E[-7-6-7-------------------------------------------------------------]

guest
You may want to rate the tab now too:
select rating
Wanna post a correction for this tab? Suggest correction