Oops, an error
Loading. Please wait.

Urgent tab

version 1
version 1

Whole song

Interactive

32,637 views 48 this week
no commentswrite comment
1 2 3 4 5
x 4
add to favorites
×
Save as Personal and add changes to this tab that will be seen only by you. Learn more ›
×
You can save this tab as Personal to edit and correct it or add notes. All changes will be seen only by you. Learn more »
launch autoscroll
font size
0
reset
how to read this tab
guitar tuner
backing track
0:00
0:00
edit
Autoscroll
slow
fast
+/-
esc
set tempo
stop
Author
Unregistered
[Intro]
e|---------------------------------------------------------|
B|---------------------------------------------------------|
G|---------------------------------------------------------|
D|---------------------------------------------------------|
A|---------------------------------------------------------|
E|---------------------------------------------------------|

[Background] (x2)
e|---------------------------------------------------------------|
B|---------------------------------------------------------------|
G|---------------------------------------------------------------|
D|-------4-4--2-2--4-4---0-0--4-4--2-2--4-4--------4-4--2-2--4-4-|
A|--------------------------------------------2-2----------------|
E|--2-2----------------------------------------------------------|

[Verse]
            F#5
Youre not shy, you get around
            A5
You wanna fly, dont want your feet on the ground
          B5
You stay up, you wont come down
            F#5
You wanna live, you wanna move to the sound
       F#5
Got fire in your veins
         A5
Burnin hot but you dont feel the pain
          B5
Your desire is insane
           F#5
You cant stop until you do it again
           F#5
But sometimes I wonder as I look in your eyes
  A5
Maybe youre thinking of some other guy
        B5
But I know, yes I know, how to treat you right
        F#5
Thats why you call me in the middle of the night

[Chorus]
             F#5-F#5-E5-E5-B5-B5-B5-D5-D5-D5
You say its urgent
So urgent, so oh oh urgent
Just wait and see
How urgent my love can be
Its urgent

[Verse]
           F#5
You play tricks on my mind
            A5
Youre everywhere but youre so hard to find
           B5
Youre not warm or sentimental
            F#5
Youre so extreme, you can be so temperamental
     F#5
But Im not looking for a love that will last
    A5
I know what I need and I need it fast
              B5
Yeah, theres one thing in common that we both share
          F#5
Thats a need for for each other anytime, anywhere

[Chorus]
                F#5-F#5-E5-E5-B5-B5-B5-D5-D5-D5
It gets so urgent
So urgent
You know its urgent
I wanna tell you its the same for me
So oh oh urgent
Just you wait and see
How urgent our love can be
Its urgent

[Solo]
e|---------------------------------------------------------------|
B|---------------------------------------------------------------|
G|---------------------------------------------------------------|
D|-------4-4--2-2--4-4---0-0--4-4--2-2--4-4--------4-4--2-2--4-4-|
A|--------------------------------------------2-2----------------|
E|--2-2----------------------------------------------------------|

[Outro]
              F#5-F#5-E5-E5-B5-B5-B5-D5-D5-D5
You say its urgent
Make it fast, make it urgent
Do it quick, do it urgent
Gotta rush, make it urgent
Want it quick
Urgent, urgent, emergency
Urgent, urgent, emergency
Urgent, urgent, emergency
Urgent, urgent, emergency
So urgent, emergency
Emer... emer... emer...
Its urgent

            
            
Suggest correction
Creating personal tab
Creating personal tab
You can edit any tab online and save it as your Personal.

You can edit, replace or remove any tab part or add personal notes – all changes will be seen only by you.

Personal tabs can be accessed anytime from any device, even offline.
Learn more »
comments
print report bad tab
guest
Wanna post a correction for this tab? Suggest correction