Oops, an error
Loading. Please wait.

Waiting For A Girl Like You Bass Tab

version 1
version 1

Whole song

Interactive

4,167 views 9 this week
no commentswrite comment
1 2 3 4 5
please rate
add to favorites
launch autoscroll
font size
0
reset
guitar tuner
Tab Pro tools
  • play this tab
  • loop segment
  • change instrument
  • show fretboard
  • metronome
×
Best way to learn
"Waiting For A Girl Like You"
Autoscroll
slow
fast
+/-
esc
set tempo
stop
Contributor
Waiting For A Girl Like You by Foreigner
Written by Mick Jones/Lou Gramm
Tabbed by Sean Hunnicutt

I can’t believe nobody has tabbed this awesome love song!
I’m not sure it’s 100%, but if someone else nails it better
feel free to submit corrections.

Intro (x2)           So long… (Verse Part 1)
G-------------------|---------------------------|
D--------8----------|---------------------------|
A----7-8---8--3-----|---------------------------|
E-6-------------1-1-|-5-5--5-5--5-5--5-5--5-5---|

(repeat on 1st verse)
When you love someone  (2nd time on 2nd verse)
G-----------9-7------|---------9-7---------------|
D---------9-----7-7--|-------9-----7/9b----------|
A-----7-7------------|---7-7-------------(4)-----|
E-5/7----------------|-7---------------------1-1-|

(Verse Part 2)         (Pre-Chorus)
It feels so right…      Maybe I'm wrong… (x4)
G---------------------|--------------------------------|
D---------------------|--------------------------------|
A-8-88-8-88-8-88-8-88-|--------------------------------|
E---------------------|-8\2-2--2-2--4-4--4-4--2-2--4-4-|

(Chorus)
I've been waiting…     (1st)       (2nd)      (3rd)
G-------------------|-----8-7/9-|---------|-----8-7/9-|
D-------------------|---8-------|---------|---8-------|
A-5-55-55-55-3-2-22-|-6---------|---------|-6---------|
E-------------------|-----------|-4-44-44-|-----------|

(End 1st chorus)
G------------------------------|
D------------------------------|
A-5-55-55-55-3-2-22------------|
E-------------------22-44-44-5-|

Intro x2

Verse Part 1

Pre-Chorus

Chorus

(End 2nd chorus)
G--------------------------------|----|-----|
D--------------------------------|----|-----|
A-5-55-55-55-3-2-22--------------|----|-----|
E-------------------2-22-2-3-4\1-|----|-3-4-|

Repeat intro to fade.
comments
We did not receive enough feedback on this tab! Please rate:
print report bad tab
1 2 3 4 5
I want to post or [tab]
guest
You may want to rate the tab now too:
select rating
Please do not post tabs as comments. Select "correction" instead!