Oops, an error
Loading. Please wait.

Lights tab

373 views 1 this week
no commentswrite comment
1 2 3 4 5
2 more votes to show rating
add to favorites
×
Save as Personal and add changes to this tab that will be seen only by you. Learn more ›
×
You can save this tab as Personal to edit and correct it or add notes. All changes will be seen only by you. Learn more »
launch autoscroll
font size
0
reset
how to read this tab
guitar tuner
edit
Autoscroll
slow
fast
+/-
esc
set tempo
stop
I learned this song by ear :)

|Intro|

Play this 5 times

1c |------------------------------------------------------------|
2g |------------------------------------------------------------|
3d#|------------------------------------------------------------|
4A#|------------------------------------------------------------|
5F |---13h15-------------------------13h15----------------------|
6A#|-0-------0-12-0-0-10-12-12-12-0--------0-12-0-0-13-13-13-13-|

|Verse 1|
Part 1

1c |------------------------------------------------------------------------------------------------------------|
2g |------------------------------------------------------------------------------------------------------------|
3d#|------------------------------------------------------------------------------------------------------------|
4A#|-0-----0-----13-12----------0-----0-----13-12----------0-----0-----13-12----------0-----0-------------------|
5F |-0-[0]-0-[0]-13-12----------0-[0]-0-[0]-13-12----------0-[0]-0-[0]-13-12----------0-[0]-0-[0]---------------|
6A#|-0-[0]-0-[0]-13-12-[0-0]-3*-0-[0]-0-[0]-13-12-[0-0]-5*-0-[0]-0-[0]-13-12-[0-0]-3*-0-[0]-0-[0]-13p12-0-10h12-|

1c |-------------------------------------------------------------------------------------------------------|
2g |-------------------------------------------------------------------------------------------------------|
3d#|-------------------------------------------------------------------------------------------------------|
4A#|-0-----0-----13-12-------1-0-----0-----13-12-------3-0-----0-----13-12-------1-0-----0-----13-12-1->-3-|
5F |-0-[0]-0-[0]-13-12-------1-0-[0]-0-[0]-13-12-------3-0-[0]-0-[0]-13-12-------1-0-[0]-0-[0]-13-12-1->-3-|
6A#|-0-[0]-0-[0]-13-12-[0-0]-1-0-[0]-0-[0]-13-12-[0-0]-3-0-[0]-0-[0]-13-12-[0-0]-1-0-[0]-0-[0]-13-12-1->-3-|

Part 2

1c |---------------------------------------------------------------------------------------------|
2g |---------------------------------------------------------------------------------------------|
3d#|---------------------------------------------------------------------------------------------|
4A#|-----------------------------------------1-1-1-----------------------------------------1->-3-|
5F |-----------------------------------------1-1-1-----------------------------------------1->-3-|
6A#|-h12-0-0-0-h12-0-0-0-h12-0-0-0-h12-0-0-0-1-1-1-h12-0-0-0-h12-0-0-0-h12-0-0-0-h12-0-0-0-1->-3-|

1c |----------------------------------------------------------------------------------------------------------------|
2g |----------------------------------------------------------------------------------------------------------------|
3d#|----------------------------------------------------------------------------------------------------------------|
4A#|---------------------------------------------------------------------------------------------------------12-7-8-|
5F |----------------------------------------------------------------------------------------------------------------|
6A#|-h12-0-0-0-h12-0-0-0-h12-0-0-0-h12-0-0-0-13-13-13-13-13-13-13-13-h12-0-0-0-h12-0-0-0-h12-0-0-0-h12-0-0-0--------|

|Chorus|

Play this twice

1c |-------------------------------------------------|
2g |-------------------------------------------------|
3d#|-------------------------------------------------|
4A#|-0-0-0-0-----5-5-5-5-5-8-8-8-8-------3-3-3-3-3-3-|
5F |-0-0-0-0-[0]-5-5-5-5-5-5-8-8-8-8-[8]-3-3-3-3-3-3-|
6A#|-0-0-0-0-[0]-5-5-5-5-5-5-8-8-8-8-[8]-3-3-3-3-3-3-|

|Verse 2|

Play intro 4 times, then play this twice, but stop here -------| at the second time
                                                               |
1c |-----------------------------------------------------------|---------|
2g |-----------------------------------------------------------|---------|
3d#|-----------------------------------------------------------|---------|
4A#|---13-12-------5^---13-12-----------13-12-------5^---13-12-|---1->-3-|
5F |-0-13-12----------0-13-12-------1-0-13-12----------0-13-12-|-0-1->-3-|
6A#|-0-13-12-0-3b4----0-13-12-0-3b4-1-0-13-12-0-3b4----0-13-12-|-0-1->-3-|

Then, play the chorus. Now, here's the |Breakdown|, which was quite hard to indentify :

1c |-----------------------------------------------------------------------------|
2g |-----------------------------------------------------------------------------|
3d#|-----------------------------------------------------------------------------|
4A#|-----------------------------------------------------------------------------|
5F |-[0-0-0---0-0-0-0---0-0--0-0---0--0-0---0-0-0--0-0-0---0--0-0-0--0-0-0-0-0-]-|
6A#|-[0-0-0---0-0-0-0---0-0--0-0---0--0-0---0-0-0--0-0-0---0--0-0-0--0-0-0-0-0-]-|

1c |---------------------------------------------------------------------------------|
2g |---------------------------------------------------------------------------------|
3d#|---------------------------------------------------------------------------------|
4A#|---------------------------------------------------------------------------------|
5F |-[0-0-0---0-0-0--0-0-0---0-0--0-0---0--0-0-0--0-0-0---0-0-0---0--0-0--0-0-0-0-0]-|
6A#|-[0-0-0---0-0-0--0-0-0---0-0--0-0---0--0-0-0--0-0-0---0-0-0---0--0-0--0-0-0-0-0]-|

|Ending|

Play this twice

1c |-----------------------------------------------------------------------------------------------------|
2g |-----------------------------------------------------------------------------------------------------|
3d#|-----------------------------------------------------------------------------------------------------|
4A#|-0-0-0-0--0-0-0-0-0-0-10-10-10-10--10-10-10-10-10-10-0-0-0-0--0-0-0-0-0-0-10-10-10-10-->-7-7-7-7-7-7-|
5F |-0-0-0-0--0-0-0-0-0-0-10-10-10-10--10-10-10-10-10-10-0-0-0-0--0-0-0-0-0-0-10-10-10-10-->-7-7-7-7-7-7-|
6A#|-0-0-0-0--0-0-0-0-0-0-10-10-10-10--10-10-10-10-10-10-0-0-0-0--0-0-0-0-0-0-10-10-10-10-->-7-7-7-7-7-7-|

And finish with that

1c |------------------------------------------------|
2g |------------------------------------------------|
3d#|---10v---10->-9v---------10v---10->-12-9v-------|
4A#|--------------------10v---------------------10v-|
5F |------------------------------------------------|
6A#|-0----------------------------------------------|

|Vocabulary|

-> : Slide
^ : Harmonic
* : Artificial harmonic
[] : Palm mute
b : Bend
h : Hammer
p : Pulling
Suggest correction
Creating personal tab
Creating personal tab
You can edit any tab online and save it as your Personal.

You can edit, replace or remove any tab part or add personal notes – all changes will be seen only by you.

Personal tabs can be accessed anytime from any device, even offline.
Learn more »
Give kudos to tab author, rate the tab!
1 2 3 4 5
comments
print report bad tab
guest
Wanna post a correction for this tab? Suggest correction