Oops, an error
Loading. Please wait.

How You Feel Chords

46 views 12 this week
no commentswrite comment
1 2 3 4 5
3 more votes to show rating
add to favorites
launch autoscroll
font size
0
reset
transpose
0
reset
display chords
guitar tuner
Autoscroll
slow
fast
+/-
esc
set tempo
stop
Help us to improve Ultimate-Guitar.com Take our survey!
×
Author
Difficulty
novice
About this tab version
Includes riff, If you want it to sound like the record, tune to 432hz or just tune down enough to where it matches the song. Was this info helpful? Yes No
Strumming
167 bpm
1
&
2
&
3
&
4
&
Play
Is this strumming pattern correct? Yes No
[Verse 1]

 G       F#m
When we stopped 
                Em
I didn't have a chance 
                A
To say a single thing 
                   G
And I have no confidence 
                  F#m
No guts inside of me 
                           Em          A
Tellin me to say more than hey wassup 


[Verse 2]

G                F#m
You're lookin at me 
             Em  
I'm lookin behind me 
                        A
I wonder what it could be
                 G
That's hiding behind me 
                   F#m
That discarded old thing
                                 Em  A 
The girl for which I used to sing songs


[Riff]

   G             A  Bm F#m                       A 
e|-3-3-3-3-3-3-/-5-/-7--2-------------------------0-0-0-0-0-------------|
B|-3-3-3-3-3-3-/-5-/-7--2-0-2-0---0-2-3-2-0-0-----2-2-2-2-2-------------|
G|-4-4-4-4-4-4-/-6-/-7--2-------2-------------2-0-2-2-2-2-2-------------|
D|-5-5-5-5-5-5-/-7-/-9--4-------------------------2-2-2-2-2-------------|
A|-5-5-5-5-5-5-/-7-/-9--4-------------------------0-0-0-0-0-------------|
E|-3-3-3-3-3-3-/-5-/-2--2-------------------------0-0-0-0-0-------------|


[Verse 3]

G        F#m
I should stop 
              Em
Looking at my feet
                             A 
And start looking in front of me
                       G 
Looking where the dots all meet 
                   F#m
I wonder if we'll ever be,
                  Em 
More than just my cloudy dream 
                      A
Where you're standing next to me 


[Verse 4]

G      F#m
Do you want 
      Em
Me at all
                             A 
Cause if you don't that's alright
                             G  
But it sure as hell would be nice
               F#m        Em  A  
To be a little closer to youuuuu


[Riff] 

   G             A  Bm F#m                       A 
e|-3-3-3-3-3-3-/-5-/-7--2-------------------------0-0-0-0-0-------------|
B|-3-3-3-3-3-3-/-5-/-7--2-0-2-0---0-2-3-2-0-0-----2-2-2-2-2-------------|
G|-4-4-4-4-4-4-/-6-/-7--2-------2-------------2-0-2-2-2-2-2-------------|
D|-5-5-5-5-5-5-/-7-/-9--4-------------------------2-2-2-2-2-------------|
A|-5-5-5-5-5-5-/-7-/-9--4-------------------------0-0-0-0-0-------------|
E|-3-3-3-3-3-3-/-5-/-2--2-------------------------0-0-0-0-0-------------|

repeats, probably improvise something at the end there.
Suggest correction
Give kudos to tab author, rate the tab!
1 2 3 4 5
comments
print report bad tab
guest
You may want to rate the tab now too:
select rating
Wanna post a correction for this tab? Suggest correction