Oops, an error
Loading. Please wait.

Miss Madness Chords

121 views 3 this week
1 commentread comment
1 2 3 4 5
3 more votes to show rating
add to favorites
launch autoscroll
font size
0
reset
transpose
0
reset
display chords
guitar tuner
×
Best way to learn
"Miss Madness"
Autoscroll
slow
fast
+/-
esc
set tempo
stop
Author
Difficulty
MISS MADNESS - Forever Still
Tabbed by: David Clark (david0518)
Email:  davidclark0518@gmail.com
Tuning: Standard

Song originally recorded in Drop B tuning (B F# B E G# C#)
but translated to standard tuning here

[Intro riff - piano translated to guitar]
F#m  D   E   Bm

e|--------------------------------------------------------|
B|--10-------10-------10-------9-------9--------9---------|
G|-----11-------11-------11------11-------11------11------|
D|--------11-------11---------------11-------11-----------|
A|--------------------------------------------------------|
E|--------------------------------------------------------|

e|--------------------------------------------------|
B|--7-------7-------7------7------7------7----------|
G|----9-------9-------9------9------9------9--------|
D|------9-------9--------------9------9-------------|
A|--------------------------------------------------|
E|--------------------------------------------------|

F#  D   E   Bm
Heavy guitar 

[Verse 1]
F#       D              E    Bm  
See Miss Madness in her cell smiling by herself
F#          D        E
How did she overdose again?
F#       D              E    Bm
All I hear are foreign words falling from above
D                  E
With no purpose at all
D                  E
I don't fear being alone

[Chorus]
F#  D       E   Bm
  I bid you all goodbye
F#  D       E
And start to fly high
F#  D          E       Bm
This time I'll win the fight
F#   D    E
Even my cell shines bright tonight

[*repeat intro piano/guitar riff]

F#m  D   E   Bm

[Verse 2]
F#     D      E      Bm
Puts a finger to her pulse, shakes his head and sighs
F#             D            E   
"Your girl has gone to Neverland"
F#     D                E      Bm
Starry heavens light my way; a purple meadow path
D                  E
So soft against my skin
          D               E
All these wonders make me blind

[Chorus]
F#  D       E   Bm
  I bid you all goodbye
F#  D       E
And start to fly high
F#  D          E       Bm
This time I'll win the fight
F#   D    E
Even my cell shines bright tonight

[Bridge]
D               Bm
Tonight I fly so high I touch the
D                Bm
Skies of blue but don't you cry for me
D          Bm                   D
I see the light for the first time
D              E
And I'll never die

[Chorus]
F#  D       E   Bm
  I bid you all goodbye
F#  D       E
And start to fly high
F#  D          E       Bm
This time I'll win the fight
F#   D    E
Even my cell shines bright tonight

[Outro]
F#  D   E  Bm
I'll never die
F#  D   E
I'll never die
F#  D   E  Bm
I'll never die
F#  D  
    I'll never...
Suggest correction
Give kudos to tab author, rate the tab!
1 2 3 4 5
comments
print report bad tab
1 comment total.
-1 reply
david0518 185 Dec 13, 2016 11:52 AM

Forever Still originally recorded this song in Drop B tuning, but I just translated the chords to standard here.

guest
You may want to rate the tab now too:
select rating
Wanna post a correction for this tab? Suggest correction