Oops, an error
Loading. Please wait.

Save Me Tab

19 views 1 this week
no commentswrite comment
1 2 3 4 5
3 more votes to show rating
add to favorites
launch autoscroll
font size
0
reset
how to read this tab
guitar tuner
Autoscroll
slow
fast
+/-
esc
set tempo
stop
Help us to improve Ultimate-Guitar.com Take our survey!
×
Author
Difficulty
Tuning
novice
C# G# C# F# A# D#
----------------------------------------------------------------- 
SAVE ME - Forever Still
----------------------------------------------------------------- 

Tabbed by: David Clark (david0518)
Tuning: Drop C# (C# G# C# F# A# D#)

https://www.youtube.com/watch?v=XdptA3pwmAQ

INTRO:

Guitar 1:

D#|------5-----5-----5-----5------3-----3-----3-----3--|
A#|----6-----6-----6-----6------5-----5-----5-----5----|
F#|--7-----7-----7-----7------5-----5-----5-----5------|
C#|----------------------------------------------------|
G#|----------------------------------------------------|
C#|----------------------------------------------------|

D#|------5-----5-----5-----5---------------------------|
A#|-------------------------------6-----6-----6-----6--|
F#|----6-----6-----6-----6------7-----7-----7-----7----|
C#|--7-----7-----7-----7------8-----8-----8-----8------|
G#|----------------------------------------------------|
C#|----------------------------------------------------|

Guitar 2:

     C#m  B    G#   A

D#|--5----3----7----8-----|
A#|--6----5----10---11----|
F#|--7----5----9----10----|
C#|--7----5----7----8-----|
G#|--5----3----7----8-----|
C#|--0----0----7----8-----|

VERSE:

C#m  G#  A
C#m  G#  F#

"I hear you calling..."

D#|-------5-5----------------------------------------|
A#|-------6-6---------------10-10--------11-11-------|
F#|-------7-7---------------9--9---------10-10-------|
C#|----7--7-7---------------7--7---------8--8--------|
G#|--5-------------------7--7--7------8--8--8--------|
C#|--------------------7------------8----------------|

D#|-------5-5----------------------------------------|
A#|-------6-6---------------10-10--------8--8--------|
F#|-------7-7---------------9--9---------7--7--------|
C#|----7--7-7---------------7--7---------5--5--------|
G#|--5-------------------7--7--7------5--5--5--------|
C#|--------------------7------------5----------------|

A  B  A  B

"Still I wonder if you see me..."

D#|------------------------------------------------|
A#|------11-11-------11-11------11-11-------11-11--|
F#|------10-10-------10-10------10-10-------10-10--|
C#|------8--8--------8--8-------8--8--------8--8---|
G#|----8-8--8------8-8--8-----8-8--8------8-8--8---|
C#|--8-----------8----------8-----------8----------|

D#|----------------------------------------------------|
A#|-------13-13--------13-13-------13-13--------13-13--|
F#|-------12-12--------12-12-------12-12--------12-12--|
C#|-------10-10--------10-10-------10-10--------10-10--|
G#|----10-10-10-----10-10-10----10-10-10-----10-10-10--|
C#|--10-----------10----------10-----------10----------|

D#|------------------------------------------------|
A#|------11-11-------11-11------11-11-------11-11--|
F#|------10-10-------10-10------10-10-------10-10--|
C#|------8--8--------8--8-------8--8--------8--8---|
G#|----8-8--8------8-8--8-----8-8--8------8-8--8---|
C#|--8-----------8----------8-----------8----------|

D#|----------------|
A#|----------------|
F#|----------------|
C#|--10------------|
G#|--10------------|
C#|--10------------|


CHORUS:

"Save me..."

     C#m  B    G#   A

D#|--5----3----7----8-----|
A#|--6----5----10---11----|
F#|--7----5----9----10----|
C#|--7----5----7----8-----|
G#|--5----3----7----8-----|
C#|--0----0----7----8-----|


VERSE 2:

C#m  G#  A
C#m  G#  F#

"I know you're watching..."

D#|-------5-5----------------------------------------|
A#|-------6-6---------------10-10--------11-11-------|
F#|-------7-7---------------9--9---------10-10-------|
C#|----7--7-7---------------7--7---------8--8--------|
G#|--5-------------------7--7--7------8--8--8--------|
C#|--------------------7------------8----------------|

D#|-------5-5----------------------------------------|
A#|-------6-6---------------10-10--------8--8--------|
F#|-------7-7---------------9--9---------7--7--------|
C#|----7--7-7---------------7--7---------5--5--------|
G#|--5-------------------7--7--7------5--5--5--------|
C#|--------------------7------------5----------------|

A  B  A  B

"Still I wonder if you see me..."

D#|------------------------------------------------|
A#|------11-11-------11-11------11-11-------11-11--|
F#|------10-10-------10-10------10-10-------10-10--|
C#|------8--8--------8--8-------8--8--------8--8---|
G#|----8-8--8------8-8--8-----8-8--8------8-8--8---|
C#|--8-----------8----------8-----------8----------|

D#|----------------------------------------------------|
A#|-------13-13--------13-13-------13-13--------13-13--|
F#|-------12-12--------12-12-------12-12--------12-12--|
C#|-------10-10--------10-10-------10-10--------10-10--|
G#|----10-10-10-----10-10-10----10-10-10-----10-10-10--|
C#|--10-----------10----------10-----------10----------|

D#|------------------------------------------------|
A#|------11-11-------11-11------11-11-------11-11--|
F#|------10-10-------10-10------10-10-------10-10--|
C#|------8--8--------8--8-------8--8--------8--8---|
G#|----8-8--8------8-8--8-----8-8--8------8-8--8---|
C#|--8-----------8----------8-----------8----------|

D#|----------------|
A#|----------------|
F#|----------------|
C#|--10------------|
G#|--10------------|
C#|--10------------|


CHORUS:

"Save me..."

     C#m  B    G#   A

D#|--5----3----7----8-----|
A#|--6----5----10---11----|
F#|--7----5----9----10----|
C#|--7----5----7----8-----|
G#|--5----3----7----8-----|
C#|--0----0----7----8-----|


BRIDGE:

G#, E, A

"Let me fall from your arms..."

D#|--7---7---7---7---7---7----3---3-----|
A#|--10--10--10--10--10--10---6---6-----|
F#|--9---9---9---9---9---9----5---5-----|
C#|-------------------------------------|
G#|-------------------------------------|
C#|-------------------------------------|

D#|--8---8---8---8---8---8---8---8------|
A#|--11--11--11--11--11--11--11--11-----|
F#|--10--10--10--10--10--10--10--10-----|
C#|--8---8---8---8---8---8---8---8------|
G#|-------------------------------------|
C#|-------------------------------------|

x4

"Save me again; From you and from myself..."

[lightly picked / quiet]

     C#m  B    G#   A

D#|--5----3----7----8-----|
A#|--6----5----10---11----|
F#|--7----5----9----10----|
C#|--7----5----7----8-----|
G#|--5----3----7----8-----|
C#|--0----0----7----8-----|


CHORUS:

"Save me..."

     C#m  B    G#   A

D#|--5----3----7----8-----|
A#|--6----5----10---11----|
F#|--7----5----9----10----|
C#|--7----5----7----8-----| x 4
G#|--5----3----7----8-----|
C#|--0----0----7----8-----|

OUTRO:

"When we fell..."

Guitar 1:

D#|------5-----5-----5-----5------3-----3-----3-----3--|
A#|----6-----6-----6-----6------5-----5-----5-----5----|
F#|--7-----7-----7-----7------5-----5-----5-----5------|
C#|----------------------------------------------------|
G#|----------------------------------------------------|
C#|----------------------------------------------------|

D#|------5-----5-----5-----5---------------------------|
A#|-------------------------------6-----6-----6-----6--|
F#|----6-----6-----6-----6------7-----7-----7-----7----|
C#|--7-----7-----7-----7------8-----8-----8-----8------|
G#|----------------------------------------------------|
C#|----------------------------------------------------|

Guitar 2 (palm muted, very quiet):

     C#m  B    G#   A

D#|--5----3----7----8-----|
A#|--6----5----10---11----|
F#|--7----5----9----10----|
C#|--7----5----7----8-----|
G#|--5----3----7----8-----|
C#|--0----0----7----8-----|
Suggest correction
Give kudos to tab author, rate the tab!
1 2 3 4 5
comments
print report bad tab
guest
You may want to rate the tab now too:
select rating
Wanna post a correction for this tab? Suggest correction