Oops, an error
Loading. Please wait.

Believe Me Im Lying tab

version 2
version 2

Whole song

8,758 views 1 this week
13 commentsread comments
1 2 3 4 5
x 5
add to favorites
×
Save as Personal and add changes to this tab that will be seen only by you. Learn more ›
×
You can save this tab as Personal to edit and correct it or add notes. All changes will be seen only by you. Learn more »
launch autoscroll
font size
0
reset
how to read this tab
guitar tuner
edit
Autoscroll
slow
fast
+/-
esc
set tempo
stop
Author
I love this song!
=)
I hope I did well on tabbing this song.
Learned it by ear =P
Enjoy!
[[10s not 1s]]
**I would say Drop D or 1/2 Step but Standard sounds better to me**
**I perfer Standard**
_______________________________
|Updated!! =)               |
|                           |
|There are 2 different ways |
|to play...That I found out.|
|                           |
_______________________________
Updated!! June 21st, 2008             |
Well, thank you for the comments      |
by the way. =) I fixed up a few       |
things.  I put rythem guitar becuz    |
Im mostly a rythem guitarist and thats| 
all I hear. But I will try to figure  |
out the solo for you guys =)          | 
Dont worry.                           |
Just enjoy!                           |
Oh..                                  |
P.S I'll try to figure out what they  |
are playing in the beginning of the   |
song.                                 |
--------------------------------------|



Intro
Hey, you always seem to catch me
When I'm lying about the stupidest of things
Okay, stay there while I'll stab you in

Verse
...the back with the words
E|-----------------------|
B|-----------------------|
G|-1-1-1-1-1-1-1-1-1--4--|
D|-2-2-2-2-2-2-2-2-2--4--|
A|-2-2-2-2-2-2-2-2-2--2--|
E|-0-0-0-0-0-0-0-0-0-----|
I never, never should have taken this so far


Chorus
Go ahead and buy yourself a drink Cause you know you're deserving of it
E|-----------------------------------------------------|
B|-----------------------------------------------------|
G|------------5-5-5--5-5-5--3-3-3-3-3---8-8-8--7-7-7---|
D|-6-6-6-6-6--5-5-5--5-5-5--3-3-3-3-3---x-x-x--x-x-x---|
A|-6-6-6-6-6--3-3-3--3-3-3--1-1-1-1-1---6-6-6--5-5-5---|
D|-4-4-4-4-4-------------------------------------------|
Go ahead and cry yourself to sleep And think how you hate me so bad
E|------------------------------------------------------|
B|------------------------------------------------------|
G|------------5-5-5--5-5-5--3-3-3-3-3--3-3-3-3-3-3-3-3--|
D|-6-6-6-6-6--5-5-5--5-5-5--3-3-3-3-3--3-3-3-3-3-3-3-3--|
A|-6-6-6-6-6--3-3-3--3-3-3--1-1-1-1-1--1-1-1-1-1-1-1-1--|
D|-4-4-4-4-4--------------------------------------------|
Go ahead and buy yourself a drink Cause you know you're deserving of it
E|-------------------------------------------------------------|
B|-------------------------------------------------------------|
G|-------------------------------------------------------------|
D|-6-6-6-6-6-6-6-6--10-10-10-10-10-10-10-10--8-8-8-8-8-8-8-8---|
A|-6-6-6-6-6-6-6-6--10-10-10-10-10-10-10-10--8-8-8-8-8-8-8-8---|
D|-4-4-4-4-4-4-4-4--8--8--8--8--8--8--8--8---6-6-6-6-6-6-6-6---|
Go ahead and cry yourself to sleep And think how you hate me so bad
E|-------------------------------------------------------------|
B|-------------------------------------------------------------|
G|-------------------------------------------------------------|
D|-6-6-6-6-6--10-10-10--10-10-10--8-8-8-8-8--8-8-8-8-8-8-8-8---|
A|-6-6-6-6-6--10-10-10--10-10-10--8-8-8-8-8--8-8-8-8-8-8-8-8---|
D|-4-4-4-4-4--8--8--8---8--8--8---6-6-6-6-6--6-6-6-6-6-6-6-6---|


DoDo Do Do Do Do...
E|-----------------------------------------------------|
B|-----------------------------------------------------|
G|---------------------------8-8-x-8-8--10-10-x-10-10--|
D|-6-6--6-6-6--6-6-6--6-6-6--8-8-x-8-8--10-10-x-10-10--|
A|-6-6--6-6-6--6-6-6--6-6-6--6-6-x-6-6--8--8--x-8--8---|
D|-4-4--4-4-4--4-4-4--4-4-4----------------------------|

DoDo Do Do Do Do...
E|------------------------------------------|
B|------------------------------------------|
G|---------------------------8-8-x-8-8--10--|
D|-6-6--6-6-6--6-6-6--6-6-6--8-8-x-8-8--10--|
A|-6-6--6-6-6--6-6-6--6-6-6--6-6-x-6-6--8---|
D|-4-4--4-4-4--4-4-4--4-4-4-----------------|

(No Guitar)
I could write about a thousand songs to impress you
But I wouldn't want to do that
I could make you feel like the queen of the world,
but I won't Cause you're full of imperfections

VerseII
And this is coming from a third perspective
All I'm saying is you need to be selective
E|----------------------------------------------------|
B|----------------------------------------------------|
G|--------------------------8-8-x-8-8--10-10-x-10-10--|
D|-6-6-6-6-6-6-6-6-6-6-6----8-8-x-8-8--10-10-x-10-10--|
A|-6-6-6-6-6-6-6-6-6-6-6----6-6-x-6-6--8--8--x-8--8---|
D|-4-4-4-4-4-4-4-4-4-4-4------------------------------|
This is coming from a gentleman with your needs in mind
I've got his on the sideline
E|----------------------------------------------------|
B|----------------------------------------------------|
G|-------------------------8-8-8-8-8-8--101010101010--|
D|-6-6-6-6-6-6-6-6-6-6-6---x-x-x-x-x-x--x-x-x-x-x-x---|
A|-6-6-6-6-6-6-6-6-6-6-6---6-6-6-6-6-6--8-8-8-8-8-8---|
D|-4-4-4-4-4-4-4-4-4-4-4------------------------------|

Bridge
Laaaa...
E|---------------|
B|---------------|
G|-----8~--10~---|
D|-6~--8~--10~---|[[2xs(The last chord, Don't let it ring)]]
A|-6~--6~--8~----|
D|-4~------------|

Chorus II
Go ahead and buy yourself a drink Cause you know you're deserving of it
E|-----------------------------------------------------|
B|-----------------------------------------------------|
G|------------5-5-5--5-5-5--3-3-3-3-3---8-8-8--7-7-7---|
D|-6-6-6-6-6--5-5-5--5-5-5--3-3-3-3-3---x-x-x--x-x-x---|
A|-6-6-6-6-6--3-3-3--3-3-3--1-1-1-1-1---6-6-6--5-5-5---|
D|-4-4-4-4-4-------------------------------------------|
Go ahead and cry yourself to sleep And think how you hate me so bad
E|------------------------------------------------------|
B|------------------------------------------------------|
G|------------5-5-5--5-5-5--3-3-3-3-3--3-3-3-3-3-3-3-3--|
D|-6-6-6-6-6--5-5-5--5-5-5--3-3-3-3-3--3-3-3-3-3-3-3-3--|
A|-6-6-6-6-6--3-3-3--3-3-3--1-1-1-1-1--1-1-1-1-1-1-1-1--|
D|-4-4-4-4-4--------------------------------------------|
Go ahead and buy yourself a drink Cause you know you're deserving of it
E|-------------------------------------------------------------|
B|-------------------------------------------------------------|
G|-------------------------------------------------------------|
D|-6-6-6-6-6-6-6-6--10-10-10-10-10-10-10-10--8-8-8-8-8-8-8-8---|
A|-6-6-6-6-6-6-6-6--10-10-10-10-10-10-10-10--8-8-8-8-8-8-8-8---|
D|-4-4-4-4-4-4-4-4--8--8--8--8--8--8--8--8---6-6-6-6-6-6-6-6---|
Go ahead and cry yourself to sleep And think how you hate me so bad
E|-------------------------------------------------------------|
B|-------------------------------------------------------------|
G|-------------------------------------------------------------|
D|-6-6-6-6-6--10-10-10--10-10-10--8-8-8-8-8--8-8-8-8-8-8-8-8---|
A|-6-6-6-6-6--10-10-10--10-10-10--8-8-8-8-8--8-8-8-8-8-8-8-8---|
D|-4-4-4-4-4--8--8--8---8--8--8---6-6-6-6-6--6-6-6-6-6-6-6-6---|


Bridge II
E|-----|
B|-----|
G|-8~--|
D|-8~--|
A|-6~--|
D|-----|
[[Part 2]]DoDo Do Do Do...
E|-------------------|
B|-------------------|
G|------8-8--10-10---|
D|-6-6--8-8--10-10---|
A|-6-6--6-6--8--8----|
D|-4-4---------------|

Solo
E|--------------------------------------------------------|       |-----|
B|--------------------------------------------------------|       |-----|
G|-----------------------------------------5-5-5--7-7-7---|[[2xs]]|-----|
D|-6-6-6-6-6-6-6-6-6-6-6--8-8-8-8-8-8-8-8--x-x-x--x-x-x---|       |-6~--|
A|-6-6-6-6-6-6-6-6-6-6-6--8-8-8-8-8-8-8-8--3-3-3--5-5-5---|       |-6~--|
D|-4-4-4-4-4-4-4-4-4-4-4--6-6-6-6-6-6-6-6-----------------|       |-4~--|

(No Guitar)
Go ahead and buy yourself a drink
Cause you know you're deserving of it
Go ahead and cry yourself to sleep

Outro
Go ahead and buy yourself a drink Cause you know you're deserving of it
E|-----------------------------------------------------|
B|-----------------------------------------------------|
G|------------5-5-5--5-5-5--3-3-3-3-3---8-8-8--7-7-7---|
D|-6-6-6-6-6--5-5-5--5-5-5--3-3-3-3-3---x-x-x--x-x-x---|
A|-6-6-6-6-6--3-3-3--3-3-3--1-1-1-1-1---6-6-6--5-5-5---|
D|-4-4-4-4-4-------------------------------------------|
Go ahead and cry yourself to sleep And think how you hate me so bad
E|------------------------------------------------------|
B|------------------------------------------------------|
G|------------5-5-5--5-5-5--3-3-3-3-3--3-3-3-3-3-3-3-3--|
D|-6-6-6-6-6--5-5-5--5-5-5--3-3-3-3-3--3-3-3-3-3-3-3-3--|
A|-6-6-6-6-6--3-3-3--3-3-3--1-1-1-1-1--1-1-1-1-1-1-1-1--|
D|-4-4-4-4-4--------------------------------------------|
Go ahead and buy yourself a drink Cause you know you're deserving of it
E|-------------------------------------------------------------|
B|-------------------------------------------------------------|
G|-------------------------------------------------------------|
D|-6-6-6-6-6-6-6-6--10-10-10-10-10-10-10-10--8-8-8-8-8-8-8-8---|
A|-6-6-6-6-6-6-6-6--10-10-10-10-10-10-10-10--8-8-8-8-8-8-8-8---|
D|-4-4-4-4-4-4-4-4--8--8--8--8--8--8--8--8---6-6-6-6-6-6-6-6---|
Go ahead and cry yourself to sleep And think how you hate me so bad
E|--------------------------------------------------------------|
B|--------------------------------------------------------------|
G|--------------------------------------------------------------|
D|-6-6-6-6-6--10-10-10--10-10-10--8-8-8-8-8--8-8-8-8-8-8-8-8~---|
A|-6-6-6-6-6--10-10-10--10-10-10--8-8-8-8-8--8-8-8-8-8-8-8-8~---|
D|-4-4-4-4-4--8--8--8---8--8--8---6-6-6-6-6--6-6-6-6-6-6-6-6~---|

Comment Me<3s
=)
Anyway Mistakes? Comment/Message

            
            
Suggest correction
Creating personal tab
Creating personal tab
You can edit any tab online and save it as your Personal.

You can edit, replace or remove any tab part or add personal notes – all changes will be seen only by you.

Personal tabs can be accessed anytime from any device, even offline.
Learn more »
comments
print report bad tab
13 comments total. Showing first comments.
0 reply
guyalexanderr 362 Feb 20, 2008 03:02 PM

great tab :]
5 stars

ill be putting hey brittany up soon
cus ive got it all tabbed out apart from some of the verse
when i do
check it out :]

0 reply
marcr30460 21 Mar 05, 2008 09:54 AM

i dont think this is correct, i know for a fact when they sing do do do do do do its 466444 x13311 x35533 x68866 cause i went on youtube and saw him do it, and it sounds right, check it out http://www.youtube.com/watch?v=6E9r3xLtPss

0 reply
marcr30460 21 Mar 05, 2008 10:12 AM

nevermind i take that back the do do do do do part goes (466xxx x133xx
x355xx x688xx) you were pretty close on the chorus the chorus goes something like 466xxx 81010xxx 688xxx x355xx x688xx repeat that again except play 466xxx 81010xxx 688xxx x355xx x133xx that sounds pretty good to me i could be wrong, i still havent figured out the verse yet all i know is that he plays it really low with the first two frets and it sounds like they play the high GBE strings too its not bar chords for the verse like the chorus and bridge so the fingering is around there so please some figure it out and post it! thank you

guest
You may want to rate the tab now too:
select rating
Wanna post a correction for this tab? Suggest correction