Oops, an error
Loading. Please wait.

Bipolar Baby bass

version 1
version 1

Whole song

Interactive

16 views 1 this week
no commentswrite comment
1 2 3 4 5
3 more votes to show rating
add to favorites
×
Save as Personal and add changes to this tab that will be seen only by you. Learn more ›
×
You can save this tab as Personal to edit and correct it or add notes. All changes will be seen only by you. Learn more »
launch autoscroll
font size
0
reset
guitar tuner
edit
Autoscroll
slow
fast
+/-
esc
set tempo
stop
4/4

[Intro]
G|--------------------------------|--------------------------------|
D|--------------------------------|--------------------------------|
A|--------------------------------|--------------------------------| (x4)
E|--------------------------------|--------------------------------|

[Pre-Chorus]
G|--------------------------------|--------------------------------|
D|5-------4-------2---------------|--------------------------------|
A|------------------------2-------|3-----------3---3---3---3---3---|
E|--------------------------------|--------------------------------|

                                  [Verse]
G|------------------------7-------|--------------------------------|
D|--------------------------------|--------------------------------|
A|5-------5---5---5---5-----------|3-------3-------2-------2-------|
E|--------------------------------|--------------------------------|

G|--------------------------------|--------------------------------|
D|0-------0-------0-------0-------|--------------------------------|
A|--------------------------------|3-------3-------2-------2-------|
E|--------------------------------|--------------------------------|

G|--------------------------------|--------------------------------|
D|0-------0-------0---------------|--------------------------------|
A|--------------------3---2---0---|3-------3-------2-------2-------|
E|--------------------------------|--------------------------------|

[Pre-Chorus]
G|--------------------------------|--------------------------------|
D|--------------------------------|--------------------------------|
A|--------------------------------|3-----------3---3---3---3---3---|
E|3-------2-------0---------------|--------------------------------|

                                  [Chorus]
G|------------------------7-------|--------------------------------|
D|--------------------------------|----------------0---0-----------|
A|5-----------5---5---5-----------|--------------------------------|
E|--------------------------------|3---3---------------------------|

G|--------------------------------|--------------------------------|
D|--------------------------------|----------------0---0-----------|
A|3---3-----------3---3-----------|--------------------------------|
E|--------------------------------|3---3---------------------------|

G|--------------------------------|--------------------------------|
D|--------------------------------|2---2---2---2---0---0---0---0---|
A|3---3-----------3---3-----------|--------------------------------|
E|--------------------------------|--------------------------------|

G|--------------------------------|--------------------------------|
D|--------------------------------|----------------0---0-----------|
A|3---3---3---3---3---3---3---3---|--------------------------------|
E|--------------------------------|3---3---------------------------|

G|--------------------------------|--------------------------------|
D|--------------------------------|----------------0---0---0---0---|
A|3---3-----------3---3-----------|--------------------------------|
E|--------------------------------|3---3---3---3-------------------|

G|--------------------------------|--------------------------------|
D|--------------------------------|----------------0---0---0---0---|
A|3---3---3---3-2-3-4-5---5-4-3-2-|--------------------------------|
E|--------------------------------|3---3---3---3-------------------|

                          [Verse]
G|--------------------------------|--------------------------------|
D|--------------------------------|--------------------------------|
A|3---3---3---3---3-3-3---2---0---|3-------3-------2-------2-------|
E|--------------------------------|--------------------------------|
                                                                   
G|--------------------------------|--------------------------------|
D|0-------0-------0-------0-------|--------------------------------|
A|--------------------------------|3-------3-------2-------2-------|
E|--------------------------------|--------------------------------|

G|--------------------------------|--------------------------------|
D|0-------0---2---0---------------|--------------------------------|
A|--------------------3---2---0---|3-------3-------2-------2-------|
E|--------------------------------|--------------------------------|

[Pre-Chorus]
G|--------------------------------|--------------------------------|
D|--------------------------------|--------------------------------|
A|--------------------------------|3-----------3---3---3---3---3---|
E|3-------2-------0---------------|--------------------------------|

G|--------------------------------|--------------------------------|
D|0---0---0---0---0---0---0---0---|--------------------------------|
A|--------------------------------|--------------------------------|
E|--------------------------------|3---3---3---3---3---3---3---3---|

                                  [Chorus]
G|--------------------------------|--------------------------------|
D|0---0---0---0---0---0-----------|----------------0---0-----------|
A|--------------------------------|--------------------------------|
E|--------------------------------|3---3---------------------------|

G|--------------------------------|--------------------------------|
D|--------------------------------|----------------0---0-----------|
A|3---3-----------3---3-----------|--------------------------------|
E|--------------------------------|3---3---------------------------|

G|--------------------------------|--------------------------------|
D|--------------------------------|2---2---2---2---0---0---0---0---|
A|3---3-----------3---3-----------|--------------------------------|
E|--------------------------------|--------------------------------|

G|--------------------------------|--------------------------------|
D|--------------------------------|----------------0---0-----------|
A|3---3---3---3---3---3---3---3---|--------------------------------|
E|--------------------------------|3---3---------------------------|

G|--------------------------------|--------------------------------|
D|--------------------------------|----------------0---0---0---0---|
A|3---3-----------3---3---3-------|--------------------------------|
E|--------------------------------|3---3---3---3-------------------|

G|--------------------------------|--------------------------------|
D|--------------------------------|--------------------------------|
A|3---3---3---3---3-3-3---2---0---|3---3---3---3---2---2---2---2---|
E|--------------------------------|--------------------------------|

                                  [Bridge]
G|--------------------------------|------5---------------7---7-----|
D|0---0---0---0---0---0---0---0---|--------------------------------|
A|--------------------------------|----------------5---------------|
E|--------------------------------|8---8-------8-------------------|

G|--------------------------------|--------------------------------|
D|------2---2---------------------|----------------0-----------0---|
A|--------------------------------|3-----------3-------------------|
E|0-----------0---2-------3-------|--------------------------------|

G|--------------------------------|----------------------7---7-----|
D|2-----------2---4-------5-------|--------------------------------|
A|--------------------------------|----------------5-----------5---|
E|--------------------------------|8-----------8-------------------|

G|------9---9---------------------|--------------------------------|
D|--------------------------------|--------------------------------|
A|7-----------7---9-------10------|--------------------------------|
E|--------------------------------|3-------------------------------|

                                  [Chorus]
G|--------------------------------|--------------------------------|
D|--------------------------------|----------------0---0-----------|
A|3-------------------------------|--------------------------------|
E|--------------------------------|--------------------------------|

G|--------------------------------|--------------------------------|
D|--------------------------------|----------------0---0-----------|
A|3---3-----------3---3-----------|--------------------------------|
E|--------------------------------|3---3---------------------------|

G|--------------------------------|--------------------------------|
D|--------------------------------|2---2---2---2---0---0---0---0---|
A|3---3---------------------------|--------------------------------|
E|--------------------------------|--------------------------------|

G|--------------------------------|--------------------------------|
D|--------------------------------|0---0---------------------------|
A|3---3---3---3---3---3---3---3---|----------------3---3-----------|
E|--------------------------------|--------------------------------|

G|--------------------------------|--------------------------------|
D|--------------------------------|2---2---2---2---0---0---0---0---|
A|3---3---------------------------|--------------------------------|
E|----------------3---3-----------|--------------------------------|

G|--------------------------------|--------------------------------|
D|--------------------------------|2---2---2---2---0---0---0---0---|
A|3---3---3---3---3---3---3---3---|--------------------------------|
E|--------------------------------|--------------------------------|

G|--------------------------------|--------------------------------|
D|--------------------------------|----------------0---0---0---0---|
A|3---3---3---3---3---3---3---3---|--------------------------------|
E|--------------------------------|0---0---0---0-------------------|

                                  [Outro]
G|--------------------------------|--------------------------------|
D|--------------------------------|0---0---------------------------|
A|3---3---3---3---3---3---3---3---|----------------3---3-----------|
E|--------------------------------|--------------------------------|

G|--------------------------------|--------------------------------|
D|--------------------------------|2---2---2---2---0---0---0---0---|
A|3---3---------------------------|--------------------------------|
E|----------------3---3-----------|--------------------------------|

G|--------------------------------|--------------------------------|
D|--------------------0-----------|----------------0---0---0---0---|
A|3---3---3---3---3-------3---2---|--------------------------------|
E|--------------------------------|0---0---0---0-------------------|

G|--------------------------------|--------------------------------|
D|--------------------------------|--------------------------------|
A|3---3---3---3---3---3---3---3---|3-----2-----0-------------------|
E|--------------------------------|--------------------------------|

            
            
Suggest correction
Creating personal tab
Creating personal tab
You can edit any tab online and save it as your Personal.

You can edit, replace or remove any tab part or add personal notes – all changes will be seen only by you.

Personal tabs can be accessed anytime from any device, even offline.
Learn more »
Give kudos to tab author, rate the tab!
1 2 3 4 5
comments
print report bad tab
guest
You may want to rate the tab now too:
select rating
Wanna post a correction for this tab? Suggest correction