Oops, an error
Loading. Please wait.

Hey Brittany Tab

version 1
version 1

Whole song

17,932 views 3 this week
5 commentsread comments
1 2 3 4 5
accurate
x 3
add to favorites
launch autoscroll
font size
0
reset
how to read this tab
guitar tuner
Tab Pro tools
  • play this tab
  • loop segment
  • change instrument
  • show fretboard
  • metronome
×
Best way to learn
"Hey Brittany"
Autoscroll
slow
fast
+/-
esc
set tempo
stop
Difficulty
novice
“Hey Brittany”
Forever The Sickest Kids

This tab is right.  You really have to use your ear with this band though because they
a lot of off beats.  The verses are tricky (not to play, but to hear) but I did my best, enjoy
-e dawg
Tuning- I like drop D for this song but its not completely easier.  It makes some riffs 
though.

-----  =  palm muting
/ =  pull on or off
*= Ring


Intro (when guitar comes in)
E ----------------------------------|
B-----------------------------------|
G-----------------------------------|
D-9----9-11-9--13-9----11-9---------|
A---11------------------11----------|
D-----------------------------------|

Hardcore intro Riff
E --------------------------------------|
B---------------------------------------|
G---------------------------------------|
D-3-3-3-2/3/2/3--------3333-3/5-5-------|
A-3-3-3-----------3*---3333-3/5-5-------|
D-3-3-3----------------3333-3/5-5-------|
  -----                -----------------|

End on and let this ring into the “Hey Brittany!”
E -----
B------|
G------|
D-3*---
A-3*---
D-3*---

“Are you Alone” 2 guitars
E---------|
B---------|
G---------|
D-33-3-5*-|
A-33-3-5*-|
D-33-3-5*-|
AND!
E----------------|
B----------------|
G-14-14-14-12*---|
D----------------|
A-12-12-12-10*---|
D----------------|

Verse: “So why, does everything…”
E -------------------------- ------------------------|
B----------------------------------------------------|
G-10-1099-9-5-577-7---10-1099-9-5-5/12---------------|
D----------------------------------------------------|
A-8—8-77-7-3-355-5---8—8-77-7-3-3/10-----------------|
D----------------------------------------------------|

Pre Chorus “So yeah yeah yeah, go ahead and…” 2 guitars
E-------------------------------------|
B-------------------------------------|
G-12-12-12-12/10-1010-10/9------------|
D-------------------------------------|
A-10-10-10-10/8—8-8—8/7---------------|
E-------------------------------------|
AND
E--------------------------------------------------------------------|
B--------------------------------------------------------------------|
G--------------------------------------------------------------------|
D--------------------------------------------------------------------|
A--------------------------------------------------------------------|
D-33333333-55555555-1010101010101010-99999999------------------------|
    -----------------------------------------------------------------|


Chorus “So where do we go”
E ----------------------------------------------------|
B-----------------------------------------------------|
G-----------------------------------------------------|
D-3333333333333333-77777777-55555555------------------|
A-3333333333333333-77777777-55555555------------------|
D-3333333333333333-77777777-55555555------------------|

Little Bridge Thing
E----------------------------------------|
B----------------------------------------|
G------------------10-9-10-9-------------|
D-3-3/55-5-------------------10*---------|
A-3-3/55-5-------------------------------|
D-3-3/55-5-------------------------------|

No music in long bridge

Last Chorus
E-------------------|
B-------------------|
G-------------------|
D-------------------|
A-------------------|
D-333---33333-------|
  ----  ------------|

End
E------------------|
B------------------|
G------------------|
D-5-5-5-5-5-5--3*--|
A-5-5-5-5-5-5--3*--|
E-5-5-5-5-5-5--3*--|
comments
We did not receive enough feedback on this tab! Please rate:
print report bad tab
1 2 3 4 5
5 comments total. Showing first comments.
0 reply
F1rstAct wrote on March 9 2008, 10:13 pm

Good Intro Buddy.
But some how the Intro sounds better like this.
E --------------------------------|
B---------------------------------|
G---------------------------------|
D-9----9-11-9--13-9-------11--9---|
A---11-----------------11---------|
D---------------------------------|

&&
The rest of it sounds fine..
Just I get a feeling theres something wrong in the tab
but oh well you did a great job.
=)

0 reply
mackenzieee wrote on April 4 2008, 11:09 pm

its ok but you need to fix the tab a little its like off on lines and the intro is completely in the completely wrong octave

0 reply
fydishu911 wrote on April 30 2008, 08:18 pm

good tab, but where is guitar 2?

I want to post or [tab]
guest
You may want to rate the tab now too:
select rating
Please do not post tabs as comments. Select "correction" instead!