Oops, an error
Loading. Please wait.

Hey Brittany Tab

version 4
version 4

Whole song

835 views 1 this week
no commentswrite comment
1 2 3 4 5
please rate
add to favorites
launch autoscroll
font size
0
reset
how to read this tab
guitar tuner
Tab Pro tools
  • play this tab
  • loop segment
  • change instrument
  • show fretboard
  • metronome
Autoscroll
slow
fast
+/-
esc
set tempo
stop
Contributor
Difficulty
Tuning
novice
D A D G B E
Seen a few tabs of this and they are all not quite there in my opinion so i thought i 
amalgamate and make changes.
I haven't split up all the parts as they could be played by one guitar or seperated if 
if you have two.

Tabbed By: BurkeyBaby
Tuning: Drop D

Keyboard Intro (tabbed for guitar)
e|---------------------------------|
B|---------------------------------|
G|---------------------------------|
D|--15-14----14-----15-14----14----| x4
A|--------15----15--------15----17-|
D|---------------------------------|

After 2 times through:
e|-8----8-10-8--12-8----10-8-|
B|---10--------------10------|
G|---------------------------|
D|---------------------------| x2
A|---------------------------|
D|---------------------------|

Intro (THE DROP!):
e|--------------------------------------|-----------------|
B|--------------------------------------|-----------------|
G|------------------------------------x2|-----------------|
D|-3-3-3--2h3p2h3/10--333-3-3/5-3/5-----|----3~-----------|
A|-3-3-3--------------333-3-3/5-3/5-----|----3~-----------|
D|-3-3-3--------------333-3-3/5-3/5-----|----3~-----------|
PM . . .              ... .


Verse:
e|-------------------------------------------------|
B|-------------------------------------------------|
G|----xx77--5-------7/5--------7/9-----------------|
D|-3--xxxx--x--3~---x/x---3~---x/x-----------------|
A|-3--xx55--3--3~---5/3---3~---5/7-----------------|
D|-3-----------3~---------3~-----------------------|


Prechorus:
e|------------------------------------------------------|
B|------------------------------------------------------|
G|------------------------------------------------------|
D|-333333--555555--5555--5555--333333--555555--5555--5--|
A|-333333--555555--3333--2222--333333--555555--3333--2--|
D|-333333--555555--------------333333--555555-----------|
PM ......  ......  ....  ....  ......  ......  ...

(2nd guitar)
e|------------------------------------------------------|
B|------------------------------------------------------|
G|-12xx12xx12xx12xx10-10-9-99--12xx12xx12xx12xx10-10-9--|
D|--xxx-xxx-xxx-xxx-x--x-x-xx---xxx-xxx-xxx-xxx-x--x-x--|
A|-10xx10xx10xx10xx-8--8-7-77--10xx10xx10xx10xx-8--8-7--|
E|------------------------------------------------------|


Chorus
e|------------------------------------------------------|
B|------------------------------------x2----------------|
G|------------------------------------------------------|
D|-33333333333333--77777777--55555555-------------------|
A|-33333333333333--77777777--55555555-------------------|
D|-33333333333333--77777777--55555555-------------------|

e|------------------------------------------------------|
B|--------------------------x2--------------------------|
G|--------------10-9-10-9-------------------------------|
D|-33-3/55-5-------------10-----------------------------|
A|-33-3/55-5--------------------------------------------|
D|-33-3/55-5--------------------------------------------|


Second Verse
e|-----------------------------------------------------|
B|--------------------------x2-------------------------|
G|------------55------------------------7/5-------7/9--|
D|--33-3/55-5-55-------------------3~---x/x--3~---x/x--|
A|--33-3/55-5-33--3-3-5-0----------3~---5/3--3~---5/7--|
D|--33-3/55-5----------------------3~--------3~--------|


Prechorus:
e|------------------------------------------------------|
B|------------------------------------------------------|
G|-----------------5555------------------------5555-----|
D|-333333--555555--5555--5555--333333--555555--5555--5--|
A|-333333--555555--3333--2222--333333--555555--3333--2--|
D|-333333--555555--------------333333--555555-----------|
PM ......  ......  ....  ....  ......  ......  ...

(2nd guitar)
e|------------------------------------------------------|
B|------------------------------------------------------|
G|-12xx12xx12xx12xx10-10-9-99--12xx12xx12xx12xx10-10-9--|
D|--xxx-xxx-xxx-xxx-x--x-x-xx---xxx-xxx-xxx-xxx-x--x-x--|
A|-10xx10xx10xx10xx-8--8-7-77--10xx10xx10xx10xx-8--8-7--|
E|------------------------------------------------------|


Second Chorus
e|------------------------------------------------------|
B|------------------------------------------------------|
G|------------------------------------------------------|
D|-33333333333333--77777777--55555555--333333333333333--|
A|-33333333333333--77777777--55555555--333333333333333--|
D|-33333333333333--77777777--55555555--333333333333333--|

e|------------------------------------------------------|
B|------------------------------------------------------|
G|------------------------------------------------------|
D|-77777777--5-5-5-5-5-5--3~----------------------------|
A|-77777777--5-5-5-5-5-5--3~----------------------------|
D|-77777777--5-5-5-5-5-5--3~----------------------------|
PM           . . . . . .


Bridge
e|------------------------------------------------------|
B|----------------------------------x2------------------|
G|------------------------------------------------------|
D|--5----------------5----------------------------------|
A|----3----5/8-7-5-----3---5/7-5-3----------------------|
D|-3----3-----------3----5------------------------------|
PM .. . .  .   . .  .. . . .   . .

e|----------------------------------------------------------|
B|----------------------------------------------------------|
G|----------------------------------------------------------|
D|--5----------------5--------------5------------5-----5-5--|
A|----3----5/8-7-------3---5/7-5-3----3---5/8-7----3---5-5--|
D|-3----3-----------3----5---------3----3-------3----5-5-5--|
PM .. . .      .    .. . .     . . .. . .       .. . .


Final Chorus
e|---------------------------------------|
B|---------------------------------------|
G|---------------------------------------|
D|-3333333333333--77777777--555555555----|
A|-3333333333333--77777777--555555555----|
D|-3333333333333--77777777--555555555----|

e|------------------------------------------------------|
B|------------------------------------------------------|
G|---------------------------------------------------5~-|
D|-3-3-3---333-3-3/5-3/5---3-3-3---333-3/5-5-5-5-5-5-5~-|
A|-3-3-3---333-3-3/5-3/5---3-3-3---333-3/5-5-5-5-5-5-3~-|
D|-3-3-3---333-3-3/5-3/5---3-3-3---333-3/5-5-5-5-5-5----|
PM . . .   ... .           . . .   ... .   . . . . .

I cant quite make out the 2nd guitar here but it sounds something like this, just play 
with it, its only in the background:
e|---------------|--------------------------------|
B|-before chorus-|--------------------------------|
G|--7--9-10------|----7--------7-------9-7---9-7--|
D|---------------|-10---10--10---10--10----10-----|
A|---------------|--------------------------------|
D|---------------|--------------------------------|

Keyboard outro
e|---------------------------------|
B|---------------------------------|
G|---------------------------------|
D|--15-14----14-----15-14----14----| x4
A|--------15----15--------15----17-|
D|---------------------------------|
comments
We did not receive enough feedback on this tab! Please rate:
print report bad tab
1 2 3 4 5
I want to post or [tab]
guest
You may want to rate the tab now too:
select rating
Please do not post tabs as comments. Select "correction" instead!