Oops, an error
Loading. Please wait.

La La Lainey bass

16 views 3 this week
no commentswrite comment
1 2 3 4 5
3 more votes to show rating
add to favorites
×
Save as Personal and add changes to this tab that will be seen only by you. Learn more ›
×
You can save this tab as Personal to edit and correct it or add notes. All changes will be seen only by you. Learn more »
launch autoscroll
font size
0
reset
guitar tuner
edit
Autoscroll
slow
fast
+/-
esc
set tempo
stop
4/4

[Intro]
G|------------3-------------------|--------------------------------|
D|--------------------------------|------------6-------------------|
A|1-------1-------1---------------|----------------------------4---|
E|------------------------2-------|4-------4-------4-------4-------|

G|------------3-------------------|--------------------------------|
D|--------------------------------|------------6-------------------|
A|1-------1-------1---------------|--------------------------------|
E|------------------------2-------|4-------4-------4---------------|

[Verse]
G|--------------------------------|--------------------------------|
D|--------------------------------|--------------------------------|
A|--------------------------------|--------------------------------| (x2)
E|--------------------------------|--------------------------------|

[Pre-Chorus]
G|--------------------------------|--------------------------------|
D|--------------------------------|--------------------------------|
A|1---1---1---1-------------------|----------------1---4---4---4---|
E|----------------2---2---2---2---|4---4---4---4-------------------|

G|--------------------------------|--------------------------------|
D|--------------------------------|--------------------------------|
A|1---1---1---1-------------------|--------------------4---4-4-4---|
E|----------------2---2---2---2---|4---4---4---4-------------------|

[Chorus]
G|--------------------------------|--------------------------------|
D|--------------------------------|--------------------------------|
A|1-------1-----1-----------------|------------------------1-------|
E|------------4-----------4-----3-|4---4---4---4-4-------------4---|

G|--------------3-----------------|--------------------------------|
D|--------------------------------|--------------------------------|
A|1-------1-----------------------|--------------------------------|
E|------------------------2-------|4-------------------------------|

G|--------------------------------|--------------------------------|
D|--------------------------------|--------------------------------|
A|1---1---1---1-------------------|--------------------------------|
E|----------------1---1---1---1---|2---2---2---2-------------------|

G|--------------------------------|--------------------------------|
D|--------------------------------|--------------------------------|
A|1---1---------------------------|--------------------------------|
E|------------------------2-------|4-------------------------------|

[Verse]
G|--------------------------------|--------------------------------|
D|--------------------------------|--------------------------------|
A|1-------------------------------|------------------------4-------|
E|--------------------------------|--------------------------------|

G|--------------------------------|1-------------------------------|
D|--------------------------------|--------------------------------|
A|1-------------------------------|------------------------4-1---4-|
E|--------------------------------|----------------------------4---|

[Pre-Chorus]
G|--------------------------------|--------------------------------|
D|--------------------------------|--------------------------------|
A|1-------1-----------------------|----------------4-------4-------|
E|----------------2-------2-------|4-------4-----------------------|

G|--------------------------------|--------------------------------|
D|--------------------------------|--------------------------------|
A|1-------1-----------------------|----------------4-------4-------|
E|----------------2-------2-------|4-------4-----------------------|

[Chorus]
G|--------------------------------|--------------------------------|
D|--------------------------------|--------------------------------|
A|1-------1-----1-----------------|--------------------------------|
E|------------4-----------4-----3-|4-------4---4-4-------------4---|

G|--------------3-----------------|--------------------------------|
D|--------------------------------|--------6---6-6-----------------|
A|1-------------------------------|--------------------------------|
E|--------4---------------2-------|4-------------------------------|

G|--------------------------------|--------------------------------|
D|--------------------------------|--------------------------------|
A|1---1---1---1-------------------|--------------------------------|
E|----------------1---1---1---1---|2---2---2---2-------------------|
                                                                    
G|--------------------------------|--------1---1-1-----------------|
D|--------------------------------|------------------------1-0-----|
A|1---1---------------------------|----------------------------4-3-|
E|------------------------2-------|4-------------------------------|
 
[Interlude]
G|--------------------------------|1---1---------------------------|
D|----------------4---------------|--------------------------------|
A|1-------------------------------|----------------4---------------|
E|--------------------------------|--------------------------------|

G|--------------------------------|1-------------------------------|
D|--------------------------------|------------------------3-4-3-4-|
A|1-------------------------------|----------------4---------------|
E|----------------2---------------|--------------------------------|

G|--------------------------------|--------------------------------|
D|--------------------------------|--------------------------------|
A|1-------1-----------------------|----------------4-------4-------|
E|----------------2-------2-------|4-------4-----------------------|

G|--------------------------------|--------------------------------|
D|--------------------------------|--------------------------------|
A|1-------1-----------------------|----------------4-------4-------|
E|----------------2-------2-------|4-------4-----------------------|
 
G|--------------------------------|--------------------------------|
D|--------------------------------|--------------------------------|
A|--------------------------------|--------------------------------|(x2)
E|--------------------------------|--------------------------------|

                                  [Pre-Chorus]
G|--------------------------------|--------------------------------|
D|--------------------------------|--------------------------------|
A|--------------------------------|1-------1-----1-----------------|
E|--------------------------------|------------4-----------4-----3-|

G|--------------------------------|--------------3-----------------|
D|--------------------------------|--------------------------------|
A|--------------------------------|1-------------------------------|
E|4-------4---4-4-------------4---|--------4---------------2-------|

                                  [Chorus]
G|--------------------------------|--------------------------------|
D|--------6---6-6-----------------|--------------------------------|
A|--------------------------------|1---1---1---1-------------------|
E|4-------------------------------|----------------1---1---1---1---|

G|--------------------------------|--------------------------------|
D|--------------------------------|--------------------------------|
A|--------------------------------|1---1---1---1-------------------|
E|2---2---2---2-------------------|----------------1---1---1---1---|
                                                                   
G|--------------------------------|--------------------------------|
D|--------------------------------|--------------------------------|
A|----------------4---------------|1-------1-----1-----------------|
E|2---2---2---2-------------------|------------4-----------4-----3-|

G|--------------------------------|--------------3-----------------|
D|--------------------------------|--------------------------------|
A|--------------------------------|1-------------------------------|
E|4-------4---4-4-------------4---|--------4---------------2-------|

G|--------------------------------|--------------------------------|
D|--------6---6-6-----------------|--------------------------------|
A|--------------------------------|0-------0-0-0-0-----------------|
E|4-----------------------4-------|------------------------2-------|
                                   
G|--------------------------------|
D|--------------------------------|
A|--------------------------------|
E|4-------4-4-4-4-----------------|
Suggest correction
Creating personal tab
Creating personal tab
You can edit any tab online and save it as your Personal.

You can edit, replace or remove any tab part or add personal notes – all changes will be seen only by you.

Personal tabs can be accessed anytime from any device, even offline.
Learn more »
Give kudos to tab author, rate the tab!
1 2 3 4 5
comments
print report bad tab
guest
You may want to rate the tab now too:
select rating
Wanna post a correction for this tab? Suggest correction