Oops, an error
Loading. Please wait.

She Likes Bittersweet Love bass

version 1
version 1

Whole song

Interactive

1,910 views 1 this week
1 commentread comment
1 2 3 4 5
1 last vote to show rating
add to favorites
×
Save as Personal and add changes to this tab that will be seen only by you. Learn more ›
×
You can save this tab as Personal to edit and correct it or add notes. All changes will be seen only by you. Learn more »
launch autoscroll
font size
0
reset
guitar tuner
edit
Autoscroll
slow
fast
+/-
esc
set tempo
stop
-------------------------------------------------------------------------------
	She Likes (Bittersweet Love) - Forever the Sickest Kids	     
-------------------------------------------------------------------------------

Tabbed By: SK8nBASS

Tuning: Drop D

  Intro
G|-------------------------|----------------------|
D|-------------------------|----------------------|
A|-------------------------|----------------------|
D|-0-0--5-5----7-7--9-9--9-|-0-0--5-5----7-7--0-0-|x2
  Verse
G|---------------------------------|
D|---------------------------------|
A|-----------------------5-7-9-7-5-|
D|-5-5-5-5-7-7-7-7-0-0-0-----------|x3
  Pre-Chorus
G|---------------------------------------------------------|
D|---------------------------------------------------------|
A|---------------------------------------------------------|
D|-2-2-2-2-2-2-2-2-5-5-5-5-5-5-5-5-2-2-2-2-2-2-2-2-5-5-5-5-|
  Chorus
G|-------------------------|----------------------|
D|-------------------------|----------------------|
A|-------------------------|----------------------|
D|-0-0--5-5----7-7--9-9--9-|-0-0--5-5----7-7--0-0-|x3
  Verse
G|---------------------------------|
D|---------------------------------|
A|-----------------------5-7-9-7-5-|
D|-5-5-5-5-7-7-7-7-0-0-0-----------|x3
  Pre-Chorus
G|---------------------------------------------------------|
D|---------------------------------------------------------|
A|---------------------------------------------------------|
D|-2-2-2-2-2-2-2-2-5-5-5-5-5-5-5-5-2-2-2-2-2-2-2-2-5-5-5-5-|
  Chorus
G|-------------------------|----------------------|
D|-------------------------|----------------------|
A|-------------------------|----------------------|
D|-0-0--5-5----7-7--9-9--9-|-0-0--5-5----7-7--0-0-|x4
  Bridge
G|--------------------------------------------------------------------| R |----------|
D|--------------------------------------------------------------------| E |----------|
A|--------------------------------------------------------------------| S |----------|
D|-0-0-0-0-0-0-0-0-2-2-2-2-2-2-2-2-4-4-4-4-4-4-4-4-2-2-2-2-2-2-2-2-0~-| T |-2-2--0-0-|
  Chorus
G|-------------------------|----------------------|
D|-------------------------|----------------------|
A|-------------------------|----------------------|
D|-0-0--5-5----7-7--9-9--9-|-0-0--5-5----7-7--0-0-|x2
  Outro
G|---------------------------------|---------------------------------|
D|---------------------------------|---------------------------------|
A|---------------------------------|---------------------------------|
D|-0-0-0-0-5-5-5-5-7-7-7-7-9-9-9-9-|-0-0-0-0-5-5-5-5-7-7-7-7-0-0-0-0-|x2

G|-------------------------|----------------------|
D|-------------------------|----------------------|
A|-------------------------|----------------------|
D|-0-0--5-5----7-7--9-9--9-|-0-0--5-5----7-7--0-0-|x2


| /  slide up
| \  slide down
| h  hammer-on
| p  pull-off
| ~  vibrato
| +  harmonic
| x  Mute note
===============================================================================


            
            
Suggest correction
Creating personal tab
Creating personal tab
You can edit any tab online and save it as your Personal.

You can edit, replace or remove any tab part or add personal notes – all changes will be seen only by you.

Personal tabs can be accessed anytime from any device, even offline.
Learn more »
Give kudos to tab author, rate the tab!
1 2 3 4 5
comments
print report bad tab
1 comment total.
-1 reply
DanCurrie 10 Aug 30, 2010 02:23 PM

Bad Tab. Chorus is totally wrong, and some notes in the middle are wrong as well (like after the rest)
chorus is more like (on bottom D string):
0-0--5-5--7-7--9-9
0-0--5-5--7-7--0-0

rhythms are obv different to what i've put, but you get the idea. :)

guest
You may want to rate the tab now too:
select rating
Wanna post a correction for this tab? Suggest correction