Oops, an error
Loading. Please wait.

Shes A Lady bass

9,431 views 1 this week
2 commentsread comments
1 2 3 4 5
x 6
add to favorites
×
Save as Personal and add changes to this tab that will be seen only by you. Learn more ›
×
You can save this tab as Personal to edit and correct it or add notes. All changes will be seen only by you. Learn more »
launch autoscroll
font size
0
reset
guitar tuner
edit
Autoscroll
slow
fast
+/-
esc
set tempo
stop
Shes A Lady By: FTSK
DROP D
DADG
GOOD SONG FIGURE OUT THE TIMING.

intro no bass


intro to the verse(not the same as the real intro)

G|------------------------------|
D|------------------------------|
A|----------------6-8-----8-6---|
D|-2-2--2--2--6-8-----6-8-------|

G|------------------------------|  all x2
D|------------------------------|
A|------------------------------|
D|-2-2--2--2--6h8-8-8-8-8-8-8-8-|

Verse:FUNKY

G|---------------|
D|---------------|
A|--------2------|x7
D|-2---4-----4---|

BRIDGE:

G|----------------------|
D|----------------------|
A|----------------------|x2
D|-2-22-2-2-2--6-6--4-4-|

Pre- Chorus:

G|-----------------------------------------------------------------|
D|-----------------------------------------------------------------|
A|-----------------------------------------------------------------|
D|-2-2-2-2-2-2-2-2-2-2-2-2-2-2-2-2-6-6-6-6-6-6-6-6-9-9-9-9-9-9-9-9-|

G|-----------------------------------------------------------------|
D|-----------------------------------------------------------------|
A|-----------------------------------------------------------------|
D|-2-2-2-2-2-2-2-2-2-2-2-2-2-2-2-2-4-4-4-4-4-4-4-4-4-4-4-4-4-4-4-4-|

Chorus:

G|--------------------|
D|--------------------|
A|--------------------|x2
D|-2-2-2----6-6-6--4--|

This Again

G|------------------------------|
D|------------------------------|
A|----------------6-8-----8-6---|
D|-2-2--2--2--6-8-----6-8-------|

G|------------------------------|  all x2
D|------------------------------|
A|------------------------------|
D|-2-2--2--2--6h8-8-8-8-8-8-8-8-|

and this

Verse:FUNKY

G|---------------|
D|------------4--|
A|--------2------|x7
D|-2---4---------|


BRIDGE:

G|----------------------|
D|----------------------|
A|----------------------|x2
D|-2-22-2-2-2--6-6--4-4-|

Pre- Chorus:

G|-----------------------------------------------------------------|
D|-----------------------------------------------------------------|
A|-----------------------------------------------------------------|
D|-2-2-2-2-2-2-2-2-2-2-2-2-2-2-2-2-6-6-6-6-6-6-6-6-9-9-9-9-9-9-9-9-|

G|-----------------------------------------------------------------|
D|-----------------------------------------------------------------|
A|-----------------------------------------------------------------|
D|-2-2-2-2-2-2-2-2-2-2-2-2-2-2-2-2-4-4-4-4-4-4-4-4-4-4-4-4-4-4-4-4-|


Chorus:

G|--------------------|
D|--------------------|
A|--------------------|x2
D|-2-2-2----6-6-6--4--|

Breakdown thing

G|-----------|
D|-----------|
A|-----------|
D|-2-2-2-2-2-|

G|------------------------------------------|
D|------------------------------------------|
A|--------2-2-2--44---------2-2-2-2-1-1-1-1-|x2
D|-2-2-22------------1-1-11-----------------|

Soft Part /Buildup

G|----------------|
D|----------------|
A|--2---4-------7-|x2
D|----------------|

G|--------------------------------------------------------------------------------------------|
D|--------------------------------------------------------------------------------------------|
A|-2-2-2-2-2-2-2-2-2-2-2-2-2-2-2-2-4-4-4-4-4-4-4-4-4-4-4-4-4-4-4-4----------------------------|x2
D|-----------------------------------------------------------------2-2-2-2-2-2-2-2-2-2-2-2-2--|

G|----------------------------------------------------------------------------------------|
D|----------------------------------------------------------------------------------------|
A|-2-2-2-2-2-2-2-2-2-2-2-2-2-2-2-2-4-4-4-4-4-4-4-4-4-4-4-4-4-4-4-4------------------------|x2
D|-----------------------------------------------------------------22-2-2--22--22-2-2--22-|

FILL BACK INTO PRE CHORUS:

G|---
D|---<---yah thats it!
A|---
D|-4-

Pre- Chorus:

G|-----------------------------------------------------------------|
D|-----------------------------------------------------------------|
A|-----------------------------------------------------------------|
D|-2-2-2-2-2-2-2-2-2-2-2-2-2-2-2-2-4-4-4-4-4-4-4-4-4-4-4-4-4-4-4-4-|

G|---------------------------------|
D|---------------------------------|
A|---------------------------------|
D|-2-2-2--2-2-22--4--6-6-6--6-6-44-|

G|-----------------------------------------------------------------|
D|-----------------------------------------------------------------|
A|-----------------------------------------------------------------|
D|-2-2-2-2-2-2-2-2-2-2-2-2-2-2-2-2-4-4-4-4-4-4-4-4-4-4-4-4-4-4-4-4-|


G|-----------------------------------------------------------------|
D|-----------------------------------------------------------------|
A|-----------------------------------------------------------------|x2
D|-2-2-2-2-2-2-2-2-2-2-2-2-2-2-2-2-6-6-6-6-6-6-6-6-4-4-4-4-4-4-4-4-|

end.

            
            
Suggest correction
Creating personal tab
Creating personal tab
You can edit any tab online and save it as your Personal.

You can edit, replace or remove any tab part or add personal notes – all changes will be seen only by you.

Personal tabs can be accessed anytime from any device, even offline.
Learn more »
comments
print report bad tab
2 comments total.
0 reply
rastabass 308 Dec 15, 2007 07:16 AM

KEEP TABBING FTSK SONGS, THIS BAND ROCKS! ill be sure to play most of them and rate them!

0 reply
TreaganBass7 77 Mar 17, 2016 12:33 PM

sorry but the way the tab is setup doesn't seem to go with the song the notes seen right just not the order

guest
You may want to rate the tab now too:
select rating
Wanna post a correction for this tab? Suggest correction