Oops, an error
Loading. Please wait.

Shes A Lady Tab

version 1
version 1

Whole song

45,452 views 6 this week
1 commentread comment
1 2 3 4 5
excellent!
x 5
add to favorites
launch autoscroll
font size
0
reset
how to read this tab
guitar tuner
Tab Pro tools
  • play this tab
  • loop segment
  • change instrument
  • show fretboard
  • metronome
Autoscroll
slow
fast
+/-
esc
set tempo
stop
Contributor
Band: Forever the Sickest Kids
Song: She's a Lady      
Album: Underdog Alma Mater      
Tunning: Eb (Standard with half a step down)

                       This tab was done by watching JCcovers2 video on youtube.
                                    Listen to song for strumming.           



Intro Pt.1:
Figure out the Strumming.    
e|-0--0--0--0-----|---0--0---0------------------------------------|
B|-1--1--1--1--x3-|---1--1---1------------------------------------|
G|-2--0--0--0-----|---2--0---0------------------------------------|
D|-3--3--0--2-----|---3--3---0------------------------------------|
A|-3--3--2--3-----|---3--3---2------------------------------------|
E|----------------|----------3------------------------------------|
                    After 3rd time play these chords.
Intro Pt.2:
e|----------------------------------------------------------------|
B|-------------------------------------------------------x3-------|
G|----------------------------------------------------------------|
D|---333333---777777---555555---333333---55555---555555-----------|
A|---333333---777777---555555---333333---22222---333333-----------|
E|---111111---555555---333333---111111----------------------------|

Verse 1:
e|-0--0--0--0-----|---0--0---------------------------------------|
B|-1--1--1--1--x3-|---1--1---------------------------------------|
G|-2--0--0--0-----|---2--0---------------------------------------|
D|-3--3--0--2-----|---3--3------55-55-5--------------------------|
A|-3--3--2--3-----|---3--3------55-55-5--------------------------|
E|----------------|-------------33-33-3--------------------------|
PM                              .. .. .
 
PreChorus
e|---------------------------------------------------------------|
B|---------------------------------------------------------------|
G|---------------------------------------------------------------|
D|---33-33-3---777--555--33-33-3--77--5--------------------------|
A|---33-33-3---777--555--33-33-3--77--5--------------------------|
E|---11-11-1---555--333--11-11-1--55--3--------------------------|
PM   .. .. .             .. .. .

Chorus:
e|---------------------------------------------------------------|
B|---------------------------------------------------------------|
G|------------------------555555555------------------------------|
D|-333333333---77777777---555555555----333333333---555555555-----|
A|-333333333---77777777---333333333----333333333---555555555-----|
E|-111111111---55555555----------------111111111---333333333-----|

e|---------------------------------------------------------------|
B|---------------------------------------------------------------|
G|---------------------------------------------------------------|
D|-333--777--55-55---333---777-7--5------------------------------|
A|-333--777--55-55---333---777-7--5------------------------------|
E|-111--555--33-33---111---555-5--3------------------------------|

The intro pt.2 again
e|----------------------------------------------------------------|
B|-------------------------------------------------------x2-------|
G|----------------------------------------------------------------|
D|---333333---777777---555555---333333---55555---555555-----------|
A|---333333---777777---555555---333333---22222---333333-----------|
E|---111111---555555---333333---111111----------------------------|


Verse 2: Theres no guitar for a little bit then this comes in played clean. 
         The palm mutted Gs is where you turn on distortion
e|-------------------------------------------|--------------------|
B|-------------------------------------------|--------------------|
G|-------5---7/9-------5---5h7------5---7/9--|--------------------|
D|---5-7---7-------5-7---7------5-7---7------|----55-55-5---------|
A|-------------------------------------------|----55-55-5---------|
E|-------------------------------------------|----33-33-3---------|
PM                                                .. .. .

PreChorus
e|---------------------------------------------------------------|
B|---------------------------------------------------------------|
G|---------------------------------------------------------------|
D|---33-33-3---777--555--33-33-3--77--5--------------------------|
A|---33-33-3---777--555--33-33-3--77--5--------------------------|
E|---11-11-1---555--333--11-11-1--55--3--------------------------|
PM   .. .. .             .. .. .

Chorus:
e|---------------------------------------------------------------|
B|---------------------------------------------------------------|
G|------------------------555555555------------------------------|
D|-333333333---77777777---555555555----333333333---555555555-----|
A|-333333333---77777777---333333333----333333333---555555555-----|
E|-111111111---55555555----------------111111111---333333333-----|

e|---------------------------------------------------------------|
B|---------------------------------------------------------------|
G|---------------------------------------------------------------|
D|-333--777--55-55---333---777-7--5------------------------------|
A|-333--777--55-55---333---777-7--5------------------------------|
E|-111--555--33-33---111---555-5--3------------------------------|

Play this going in the solo thingy.
e|-----------|---------------------------------------------------|
B|-----------|---------------------------------------------------|
G|-----------|-------222--------------222--------5~--------------|
D|-3-3-3-3---|--333--222--7-5----333--222--7-5---5~--------------|
A|-3-3-3-3---|--333--000--7-5----333--000--7-5---3~--------------|
E|-1-1-1-1---|--111-------5-3----111-------5-3-------------------|

No guitar for a little bit. Then play this building it up with distortion
e|---------------------------------------------------------------|
B|--------------------------------------------X2-----------------|
G|--55555555-----------------------------------------------------|
D|--55555555---555555----33333333333333--------------------------|
A|--33333333---222222----33333333333333--------------------------|
E|-----------------------11111111111111--------------------------|
PM  ........   ......    ..............

Play this but the strumming is different then the PM before. the F5 has resst between them.
e|---------------------------------------------------------------|
B|-----------------------------------------------X2--------------|
G|--55555555-----------------------------------------------------|
D|--55555555---555555----33333333333333--------------------------|
A|--33333333---222222----33333333333333--------------------------|
E|-----------------------11111111111111--------------------------|

Plays Single C5.  Starts back up in the middle of Chorus.
e|--------------|-------------------------------------------------|
B|--------------|-------------------------------------------------|
G|--5-----------|-------------------------------------------------|
D|--5-----------|-----3333333333333---55555555555-----------------|
A|--3-----------|-----3333333333333---55555555555-----------------|
E|--------------|-----1111111111111---33333333333-----------------|

e|---------------------------------------------------------------|
B|---------------------------------------------------------------|
G|---------------------------------------------------------------|
D|---333-333--555--777--555--555--5/7/5--------------------------|
A|---333-333--555--777--555--555--5/7/5--------------------------|
E|---111-111--333--555--333--333--3/5/3--------------------------|

Ending
e|---------------------------------------------------------------|
B|---------------------------------------------------------------|
G|---------------------------------------------------------------|
D|-3333333--5555--777777--555555--33333--5555--77777----5--------|
A|-3333333--5555--777777--555555--33333--5555--77777----5--------|
E|-1111111--3333--555555--333333--11111--3333--55555----3--------|
comments
print report bad tab
1 comment total.
0 reply
Luzzg wrote on July 24 2010, 10:22 pm

about sometime someone made a tab for this

I want to post or [tab]
guest
You may want to rate the tab now too:
select rating
Please do not post tabs as comments. Select "correction" instead!