Oops, an error
Loading. Please wait.

The Rain Tab

version 1
version 1

Whole song

136 views 1 this week
no commentswrite comment
1 2 3 4 5
3 more votes to show rating
add to favorites
launch autoscroll
font size
0
reset
how to read this tab
guitar tuner
Autoscroll
slow
fast
+/-
esc
set tempo
stop
Help us to improve Ultimate-Guitar.com Take our survey!
×
Author
Difficulty
advanced
TUNING: E A D G C E
(tune the B string up a half step)

Hey there, I copied Foreverinmotions intro that covers about 1:40 of the 
song. So I did my best to tab down the rest too.

Foreverinmotions part:
________________________________________________________________________

CHORD STRUCTURES OF "THE RAIN"

 F    G     A     C
--0  --0   --0     --0-|
--0  --0   --0     --0-|
--0  --0   --0     --0-|
--3  --5   --7     --2-|
--3  --5   --7     --3-|
--1  --3   --5     --3-|

v = down strum
^ = up strum
h = hammer on
p = pull off
// = slide up
\\ = slide down


OPENING RIFF

A. (4/4 time)

|-------0-----------0-----------0--------------------|
|------0-0---------0-0---------0-0------0------0-----|
|----10---10-----10---10-----10---10-----10------10--|
|--10-------10-10-------10-10------10-10-----10------|
|-8-----------8-----------0----------0------7--------|
|----------------------------------------------------|


B. (4/4 time)

|-------0-----------0----------10--------10-----------|
|------0-0---------0-0--------0--0------0--0----------|
|----10---10-----10---10-----0----0----0----0---------|  (Riff A, RIff B, repeat A x3,
|--10-------10-10-------10--9------9--9------9--------|   then go to riff C)
|-8-----------8-----------10--------10----------------|
|-----------------------------------------------------|


C. (4/4 time)

|-------0----------0----------10--------10----|
|------0-0--------0-0--------0--0------0--0---|
|-----9---9------9---9------0----0----0----0--|
|---10-----10--10-----10--9-------9--9------9-|
|-10---------10---------10---------10---------|
|---------------------------------------------|


D. (3/4 time)

|-----0-------0--------0--------0--|
|----0-0-----0-0------0-0------0-0-|
|---0-------0--------0--------0----|
|--7-------9-------10-------10-----|
|-8------10------12-------12-------|
|----------------------------------|


|-----0--------0-------10--------10--|
|----0-0------0-0-----0--0------0--0-|
|---0--------0-------0--------0------|
|--7-------10-------9--------9-------|
|-8------12-------10-------10--------|
|------------------------------------|


|-----0-------0--------0--------0--|
|----0-0-----0-0------0-0------0-0-|
|---0-------0--------0--------0----|
|--7-------9-------10-------10-----|
|-8------10------12--------0-------|
|----------------------------------|


|-------0--------0------|
|------0-0------0-0-----|
|-----9--------9------9-|
|---10-------10-------9-|
|-10-------10--------10-|
|-----------------------|


RIFF # 2

( 4/4 time - listen for timing and and subtleties)


             v v^  v   v                   v v^ v   v            v v^ v ^ v
|------------0-----0---0-------------------0----0---0-------0----0--0-0-0-0---|
|------------0-----0---0----------------0--0----0---0--------0---0--0-0-0-0---|
|------------2-----0h2-2------------0h2----0----0---0---------0--0--0-0-0-0---|
|-0h2p0------2-----2---2----2h3p2p0--------3----3---3-----3----0-2--3-2-0-2---|
|-------3p0--0-----0---0--0----------------3----3---3----3-------3--3-3-3-3---|
|------------------------------------------1----0h1-1---1---------------------|

      v v^ v  v  v               v  v^ v   v                     v v^ v   v
|0----0----0-----0---------------0-----0---0---------------------0----0---0--|
|-0---0----0-----0---------------0-----0---0-------------------0-0----0---0--|
|-----0----0-----0---------------2-----0h2-2//5------------0h2---0----0---0--|
|---0-2----0-----0----0h2po------2-----2---2//5----2h3p2p0-------3----3---3--|
|-----3----3-----2--0-------3p0--0-----0---0-----0---------------3----3---3--|
|----------3-----3-----------------------------------------------1----0h1-1--|

 v v^v^    v v v v^v^ vv v^ v v v v^v^ v v v^
|0---------0----------------0-----------------------0----------------|
|0---------0----------------0----------------------0-0------0--------|
|0---------0----------------0---------------------0----------0-------|
|3---------2----------------0--------------------3--------3----------|
|3---------3----------------2-------------------3------0-0-----2//5--|
|1---------3----------------3------------------1---------------------|

     v   v  v
|-0--0------0--|
|--0-0------0--|
|----0------0--|
|----2------0--|
|----3------2--|
|----3------3--|


________________________________________________________________________

I (not Foreverinmotion) have tabbed from here:

1:44-1:57
  v
|-0------0-----------0---------0------------------------------------|
|-0-------0-----------0---------0-----------------------------------|
|-2-----0--0-------0---0-----0---0-0--------------------------------|
|-2----3----------2-----2---0------0--------------------------------|
|-0---3------3---3---------2----------------------------------------|
|-0--1----------3---------3-----------------------------------------|

1:57-2:40: Am, F, C, G (repeat, don't know the strumming.)


2:40-3:06:
|------0---------------0--------0------------------------|
|-----0-0-------0-------0--------0-----0-----------------|
|--------0-------0-------------0--------0----------------|
|---3--------0p3--------------3-----0p2------------------|
|--3--------0-----2//5-------3-----0------3p5------------|
|-1-------------------------1-----------------1p3--------|


|------0---------------0--------0------------------------|
|-----0-0-------0-------0--------0-----0-----------------|
|--------0-------0-------------0--------0----------------|
|---3--------0p3--------------3-----0p2------------------|
|--3--------0-----2//5-------3-----0------3--------------|
|-1-------------------------1---------------3-1----------|


|------0---------------0--------0------------------------|
|-----0-0-------0-------0--------0-----0-------------0---|
|--------0-------0-------------0--------0--------0p2-----|
|---3--------0p3--------------3-----0p2---2/3\2-0--------|
|--3--------0-----2//5-------3-----0---------------------|
|-1-------------------------1----------------------------|


|------0---------------0-----|
|-----0-0-------0-------0----|
|--------0-------0-----------|
|---3--------0p3-------------|
|--3--------0-----2//5-------|
|-1--------------------------|

3:06-
|-------0-----------0-----------0--------------------|
|------0-0---------0-0---------0-0------0------0-----|
|----10---10-----10---10-----10---10-----10------10--|
|--10-------10-10-------10-10------10-10-----10------|
|-8-----------8-----------0----------0------7--------|
|----------------------------------------------------|

|-------0-----------0----------10--------10----------|
|------0-0---------0-0--------0--0------0--0---------|
|----10---10-----10---10-----0----0----0----0--------| 
|--10-------10-10-------10--9------9--9------9-------|  
|-8-----------8-----------10--------10---------------|
|----------------------------------------------------|

|-------0-----------0-----------0--------------------|
|------0-0---------0-0---------0-0------0------0-----|
|----10---10-----10---10-----10---10-----10------10--|
|--10-------10-10-------10-10------10-10-----10------|
|-8-----------8-----------0----------0------7--------|
|----------------------------------------------------|

|-------0----------0----------0--------0----|
|------0-0--------0-0--------0-0------0-0---|
|-----9---9------9---9------0---0----0---0--|
|---10-----10--10-----10--9------9--9-----9-|
|-10---------10---------10--------10--------|
|-------------------------------------------| 


|-----0-------0--------0--------0-------0--------0-------0--------0--|
|----0-0-----0-0------0-0------0-0-----0-0------0-0-----0-0------0-0-|
|---0-------0--------0--------0-------0--------0-------0--------0----|
|--7-------9-------10-------10-------7-------10-------9--------9-----|
|-8------10------12-------12--------8------12-------10-------10------|
|--------------------------------------------------------------------|

|-----0------0--------0--------0----------0-----|
|----0-0----0-0------0-0------0-0--------0-0----|
|---0------0--------0--------9---9------9---9---|
|--7------9-------10-------10-----10--10-----10-|
|-8-----10------12-------10---------10----------|
|-----------------------------------------------| 


3:56-4:53, repeat this. strum downwards.
F x8, G x8, Am x12, G x4


4:53-6:03: repeat this while fading out the guitar
|------0---------------0--------0------------------------|
|-----0-0-------0-------0--------0-----0-----------------|
|--------0-------0-------------0--------0----------------|
|---3--------0p3--------------3-----0p2------------------|
|--3--------0-----2//5-------3-----0------3--------------|
|-1-------------------------1---------------3-1----------|
Suggest correction
Give kudos to tab author, rate the tab!
1 2 3 4 5
comments
print report bad tab
guest
You may want to rate the tab now too:
select rating
Wanna post a correction for this tab? Suggest correction