Oops, an error
Loading. Please wait.

A Dead Person Breathed On Me tab

936 views 1 this week
no commentswrite comment
1 2 3 4 5
x 4
add to favorites
×
Save as Personal and add changes to this tab that will be seen only by you. Learn more ›
×
You can save this tab as Personal to edit and correct it or add notes. All changes will be seen only by you. Learn more »
launch autoscroll
font size
0
reset
how to read this tab
guitar tuner
edit
Autoscroll
slow
fast
+/-
esc
set tempo
stop
Author
Difficulty
-------------------------------------------------------------------------------
                             A DEAD PERSON BREATHED ON ME! - Forgive Durden
-------------------------------------------------------------------------------
Tabbed by: Sean Law
Email:

Tuning: Standard. I originally tabbed this a half-step down, all notes have been bumped down.
Chords for the bridge have been added, finally.

I've got shovels for my hands, anchors for my legs
e|---------------------------------------------------------------------|
B|---------------------------------------------------------------------|
G|-13--11----------------------13--11----------------------------------|
D|---------14--13--11--9--------------14--13--11-----------------------|
A|-------------------------11------------------------------------------|
E|---------------------------------------------------------------------|

Wings jut out my shoulder blades, I can go anywhere
e|---------------------------------------------------------------------|
B|---------------------------------------------------------------------|
G|-13--11-------------------------13--11-------------------------------|
D|---------14--13--11--9------------------14-13-11---------------------|
A|-------------------------11------------------------------------------|
E|---------------------------------------------------------------------|


Bridge: (I like to play A and Am barred)

A                 C#m                     F#m
But I can't go anywhere, I'm trapped in a mirror.

           A         Am      E
And you're certainly no hammer.

A               C#m                     F#m
Like the fiery sun, who's touch nothing outruns.

    A              Am     E
The craters of the arctic moon.

   A               Am     E
My burning eyes are after you.


Add another notch, in your painted town I'll rot
e|-----------------------------------|
B|-----------------------------------|
G|-------6-----------------------6---|
D|-9-6-9---6---------------9-6-9---6-|
A|-----------------------------------|
E|-----------------------------------|

As another nameless block, what's learned won't quickly be forgot
e|--------------------------------------------------------|
B|--------------------------------------------------------|
G|-------6------------------------------------------------|
D|-9-6-9---6------------------------------------9-6-9-----|
A|----------------------------------------------------7-7-|
E|--------------------------------------------------------|





| /  slide up
| \  slide down
| h  hammer-on
| p  pull-off
| ~  vibrato
| +  harmonic
| x  Mute note
===============================================================================

            
            
Suggest correction
Creating personal tab
Creating personal tab
You can edit any tab online and save it as your Personal.

You can edit, replace or remove any tab part or add personal notes – all changes will be seen only by you.

Personal tabs can be accessed anytime from any device, even offline.
Learn more »
comments
print report bad tab
guest
You may want to rate the tab now too:
select rating
Wanna post a correction for this tab? Suggest correction