Oops, an error
Loading. Please wait.

Ants Bass Tab

version 1
version 1

Whole song

2,597 views 1 this week
2 commentsread comments
1 2 3 4 5
excellent!
x 5
add to favorites
launch autoscroll
font size
0
reset
guitar tuner
Autoscroll
slow
fast
+/-
esc
set tempo
stop
Help us to improve Ultimate-Guitar.com Take our survey!
×
Author
e-mail: matddors@comcast.net

Tuning: Standard (EADG)

Intro

3x                         1x
G|------------------------|------------------------------------------------|
D|-------531-1-1----------|------58-58--8-1010101010-----------------------|
A|--3-33------3-3----1----|--3-3-------------------------------------------|
E|-----------------3------|------------------------------------------------|

1x
G|-------------------------------------------------------------------------|
D|-----------------1-1111-1111-1--3-3333-3333-3--5-5555-5555-5-------------|
A|--3-3333--3333-3---------------------------------------------------------|
E|-------------------------------------------------------------------------|


Verse 1

2x                    2nd ending
G|-------------------|-----------------------------------------------------|
D|-------1--1--------|-----------------------------------------------------|
A|--3---3------------|-----------------------------------------------------|
E|-----------1--13---|--3-3-3----------------------------------------------|


Chorus

4x                                    4th ending
G|-----------------------------------|-------------------------------------|
D|----------1-1-1-1------------------|-------------------------------------|
A|--3-3-3-3--------------------------|-------------------------------------|
E|------------------1-1-1-1-3-3-3-3--|-4444444444444444-------------------|


Verse 2

1x
G|-------------------------------------------------------------------------|
D|-------------------------------------------------------------------------|
A|--3-3-3-33-------------------------65------------------------------------|
E|-----------3-3-3-33-1-1-1-11-3-3-3---------------------------------------|

1x
G|-------------------------------------------------------------------------|
D|-------------------------------------------------------------------------|
A|--3-3-3-33---------------------------------------------------------------|
E|----------3-3-3-33-1-41-14-1-3-3------------------------------------------|


Chorus 4x


Bridge

2x                                   End On
G|-----------------------------------|----------------|
D|-----------------------------------|----------------|
A|------------------3333333322222222-|2222222222222222|
E|--1111111133333333-----------------|----------------|


Chorus 4x


Outro

1x
G|-------------------------------------------------------------------------|
D|-----------6666-999-12---------------------------------------------------|
A|-3333-3333---------------------------------------------------------------|
E|-------------------------------------------------------------------------|


============================================================================
Suggest correction
comments
print report bad tab
2 comments total.
0 reply
Incubust-A-Move 50 wrote on April 8 2007, 10:31 am

Great.

0 reply
BlackSheep7 10 wrote on December 30 2010, 09:13 pm

this has an iconic intro :)

guest
You may want to rate the tab now too:
select rating
Please do not post tabs as comments. Select "correction" instead!