Oops, an error
Loading. Please wait.

The Great Affair Is To Move tab

28 views 1 this week
no commentswrite comment
1 2 3 4 5
3 more votes to show rating
add to favorites
×
Save as Personal and add changes to this tab that will be seen only by you. Learn more ›
×
You can save this tab as Personal to edit and correct it or add notes. All changes will be seen only by you. Learn more »
launch autoscroll
font size
0
reset
how to read this tab
guitar tuner
edit
Autoscroll
slow
fast
+/-
esc
set tempo
stop
Author
Difficulty
[Intro]
[0:00]
D|-----------------------------------------------------------------------------------------------------------|
B|------x-x-------------8-8---8-8---------4h6/8-8-8--6--8--6-------------------------------------------------|
G|--8---x-x-8-/-10-/-8~-8-8---8-8---3-h-5-------8-8--6--8--6--x3---------------------------------------------|
D|--8---x-x-8-/-10-/-8~-8-8---8-8---------------8-8--6--8--6-------------------------------------------------|
A|--6--------------------------------------------------------------------------------------------------------|
E|-----------------------------------------------------------------------------------------------------------|

[Verse]
[0:19]
D|-----------------------------------------------------------------------------------------------------------|
B|-----------------------------------------------------------------------------------------------------------|
G|--8~------7~------8~------7--8-8--8--x--x--7--7-8-x-7--8-8--8--x--x--7--7-8-x------------------------------|
D|--8~------8~------8~------8--8-8--8--x--x--8--8-8-x-8--8-8--8--x--x--8--8-8-x------------------------------|
A|--6~------5~------6~------5--6-6--6--x--x--5--5-6-x-5--6-6--6--x--x--5--5-6-x------------------------------|
E|-----------------------------------------------------------------------------------------------------------|

[Clean riff at 0:26]
D|--------6---------------------------------------------------|
B|------6---8~------------------------------------------------|
G|--5h7-------------------------------------------------------|
D|------------------------------------------------------------|
A|------------------------------------------------------------|
E|------------------------------------------------------------|

[0:35]
D|-----------------------------------------------------------------------------------------------------------|
B|-----------------------------------------------------------------------------------------------------------|
G|-----------5~--------7--8-8--8--x--x--7--7-8-x-7--8-8--8--x--x--7--7-8-x-5----7----------------------------|
D|-----------5~--------8--8-8--8--x--x--8--8-8-x-8--8-8--8--x--x--8--8-8-x-5-x8-8-x8-------------------------|
A|--6~-------3~--------5--6-6--6--x--x--5--5-6-x-5--6-6--6--x--x--5--5-6-x-3----5----------------------------|
E|--6~-------------------------------------------------------------------------------------------------------|

[clean riff]
[0:35]                    [0:39]
D|-----------------------------------------------------------------------------------------------------------|
B|------------3~---------------------------------------------------------------------------------------------|
G|----------------------------------0~-----------------------------------------------------------------------|
D|-------1------------------------1--------------------------------------------------------------------------|
A|-3---3---3----------------1-h-3----------------------------------------------------------------------------|
E|-----------------------------------------------------------------------------------------------------------|

[0:48]
D|-----------------------------------------------------------------------------------------------------------|
B|-----------------------------------------------------------------------------------------------------------|
G|-5-----7---------------------------------------------------------------------------------------------------|
D|-5-x8--8-x8------------------------------------------------------------------------------------------------|
A|-3-----5---------------------------------------------------------------------------------------------------|
E|-----------------------------------------------------------------------------------------------------------|

[Interlude] 
(Clean riff left speaker)
[0:55]
D|------------------------------------------------------------|
B|------8-------9-------8-\-6-\-4~----------------------------|
G|----8---8---8---8---8---------------------------------------|
D|--8-------9-------6-----------------------------------------|
A|------------------------------------------------------------|
E|------------------------------------------------------------|

[Interlude]
(Clean riff right speaker)
[0:55]
D|------------------------------------------------------------|
B|-------3----------------------------------------------------|
G|---------5-3-----------3-1----------------------------------|
D|----5--------5---3---3-----1~-------------------------------|
A|--6------------5---1----------------------------------------|
E|------------------------------------------------------------|

[Pre-Chorus]
[0:59]
D|-----------------------------------------------------------------------------------------------------------|
B|-----------------------------------------------------------------------------------------------------------|
G|-3-----5-----8-----10--------------------------------------------------------------------------------------|
D|-3-x8--5-x8--8-x8--10-x8-----------------------------------------------------------------------------------|
A|-1-----3-----6-----8---------------------------------------------------------------------------------------|
E|-----------------------------------------------------------------------------------------------------------|

[Chorus]
[1:12]
D|-----------------------------------------------------------------------------------------------------------|
B|--------------------------------------3-3------3-3----3-3-----3-3-----------------15-----------------------|
G|--5-5-------5-5---5-5-------5-5-------3-3------3-3----3-3-----3-3----8------------14-----------------------|
D|--5-5-------5-5---5-5-------5-5-------0-0------0-0----0-0-----0-0----8-x8----------------------------------|
A|--3-3-------3-3---3-3-------3-3--------------------------------------6-------------------3--5--6-----------|
E|-----------------------------------------------------------------------------------------------------------|
                                                                                           .  .  . palm mute

[Verse 2]
[1:22]
D|-----------------------------------------------------------------------------------------------------------|
B|------x-x-------------8-8---8-8---------4h6/8-8-8--6--8--6-------------------------------------------------|
G|--8---x-x-8-/-10-/-8~-8-8---8-8---3-h-5-------8-8--6--8--6--x3---------------------------------------------|
D|--8---x-x-8-/-10-/-8~-8-8---8-8---------------8-8--6--8--6-------------------------------------------------|
A|--6--------------------------------------------------------------------------------------------------------|
E|-----------------------------------------------------------------------------------------------------------|

[1:34]
D|-----------------------------------------------------------------------------------------------------------|
B|-----------------------------------------------------------------------------------------------------------|
G|--8~------7~------7--8-8--8--x--x--7--7-8-x-7--8-8--8--x--x--7--7-8-x--------------------------------------|
D|--8~------8~------8--8-8--8--x--x--8--8-8-x-8--8-8--8--x--x--8--8-8-x--------------------------------------|
A|--6~------5~------5--6-6--6--x--x--5--5-6-x-5--6-6--6--x--x--5--5-6-x--------------------------------------|
E|-----------------------------------------------------------------------------------------------------------|
            **same riff on clean guitar from first verse

[1:48]
D|-----------------------------------------------------------------------------------------------------------|
B|-----------------------------------------------------------------------------------------------------------|
G|----------5~------7--8-8--8--x--x--7--7-8-x-7--8-8--8--x--12--x--10--x-------------------------------------|
D|----------5~------8--8-8--8--x--x--8--8-8-x-8--8-8--8--x--x---x--x---x-------------------------------------|
A|--6~------3~------5--6-6--6--x--x--5--5-6-x-5--6-6--6--x--10--x--8---x-------------------------------------|
E|--6~-------------------------------------------------------------------------------------------------------|

[clean riff]
[1:48]                  [1:51]
D|-----------------------------------------------------------------------------------------------------------|
B|------------3~---------------------3~----------------------------------------------------------------------|
G|------------------------------3----------------------------------------------------------------------------|
D|-------1--------------------1---1--------------------------------------------------------------------------|
A|-3---3---3----------------1--------------------------------------------------------------------------------|
E|-----------------------------------------------------------------------------------------------------------|

[2:00]
D|-----------------------------------------------------------------------------------------------------------|
B|-----------------------------------------------------------------------------------------------------------|
G|--5-5-5-5-5-5-5-5---------3--------------------------------------------------------------------------------|
D|--5-5-5-5-5-5-5-5-----3------3---x2------------------------------------------------------------------------|
A|--3-3-3-3-3-3-3-3-3-5--------------------------------------------------------------------------------------|
E|-----------------------------------------------------------------------------------------------------------|

[2:07]
D|-----------------------------------------------------------------------------------------------------------|
B|-----------------------------------------------------------------------------------------------------------|
G|---5--x8--7--x8--------------------------------------------------------------------------------------------|
D|---5------8------------------------------------------------------------------------------------------------|
A|---3------5------------------------------------------------------------------------------------------------|
E|-----------------------------------------------------------------------------------------------------------|

[Interlude]
(Clean riff right speaker)
D|------------------------------------------------------------|
B|-------3----------------------------------------------------|
G|---------5-3-----------3-1----------------------------------|
D|----5--------5---3---3-----1~-------------------------------|
A|--6------------5---1----------------------------------------|
E|------------------------------------------------------------|

[Interlude] 
(Clean riff left speaker)
D|------------------------------------------------------------|
B|------8-------9-------8-\-6-\-4~----------------------------|
G|----8---8---8---8---8---------------------------------------|
D|--8-------9-------6-----------------------------------------|
A|------------------------------------------------------------|
E|------------------------------------------------------------|

[Pre-Chorus]
D|-----------------------------------------------------------------------------------------------------------|
B|-----------------------------------------------------------------------------------------------------------|
G|-3-----5-----8-----10--------------------------------------------------------------------------------------|
D|-3-x8--5-x8--8-x8--10-x8-----------------------------------------------------------------------------------|
A|-1-----3-----6-----8---------------------------------------------------------------------------------------|
E|-----------------------------------------------------------------------------------------------------------|

[Bridge]
[2:39]
D|-----------------------------------------------------------------------------------------------------------|
B|-----------------------------------------------------------------------------------------------------------|
G|--------------8---8---8---8---8---8---8---8----------------------------------------------------------------|
D|--------------8---8---8---8---8---8---8---8--x4------------------------------------------------------------|
A|------------5-6---6---6---6---6---6---6---6----------------------------------------------------------------|
E|--6-----6-8------------------------------------------------------------------------------------------------|

[Outro]
[2:54]
D|-----------------------------------------------------------------------------------------------------------|
B|-----------------------------------------------------------------------------------------------------------|
G|-12---12-12----12---12-12----14----14-14-------14---14----8------------------------------------------------|
D|-12---12-12----12---12-12----14----14-14-------14---14----8-x(A bunch)-------------------------------------|
A|-10---10-10----10---10-10----12----12-12-------12---12----6------------------------------------------------|
E|-----------------------------------------------------------------------------------------------------------|

D|-----------------------------------------------------------------------------------------------------------|
B|--6----------------1---------------------------------------------------------------------------------------|
G|--6---5----------------0-----------------------------------------------------------------------------------|
D|-----------------------------------------------------------------------------------------------------------|
A|--------5/0------------------------------------------------------------------------------------------------|
E|-------------------------5b6r5-----------------------------------------------------------------------------|

D|-----------------------------------------------------------------------------------------------------------|
B|-----------------------------------------------------------------------------------------------------------|
G|-8---8-8------8---8-8------10--10-10-----10-----10--5------------------------------------------------------|
D|-8---8-8------8---8-8------10--10-10-----10-----10--5-x(A bunch)-------------------------------------------|
A|-6---6-6------6---6-6------8---8--8------8------8---3------------------------------------------------------|
E|-----------------------------------------------------------------------------------------------------------|

D|-----------------------------------------------------------------------------------------------------------|
B|--6----------------1---------------------------------------------------------------------------------------|
G|--6---5----------------0-----------------------------------------------------------------------------------|
D|-----------------------------------------------------------------------------------------------------------|
A|--------5/0------------------------------------------------------------------------------------------------|
E|-------------------------5b6r5-----------------------------------------------------------------------------|


************************************

| x  Dead note
| h  Hammer-on
| /  Slide up
| ~  Vibrato
| \  Slide down
| .  Staccato
| r  Release
| b  Bend
| x(A bunch) 

************************************

            
            
Suggest correction
Creating personal tab
Creating personal tab
You can edit any tab online and save it as your Personal.

You can edit, replace or remove any tab part or add personal notes – all changes will be seen only by you.

Personal tabs can be accessed anytime from any device, even offline.
Learn more »
Give kudos to tab author, rate the tab!
1 2 3 4 5
comments
print report bad tab
guest
You may want to rate the tab now too:
select rating
Wanna post a correction for this tab? Suggest correction