Oops, an error
Loading. Please wait.

Bomb The Boats And Feed The Fish Bass Tab

561 views 1 this week
no commentswrite comment
1 2 3 4 5
please rate
add to favorites
launch autoscroll
font size
0
reset
guitar tuner
Autoscroll
slow
fast
+/-
esc
set tempo
stop
Help us to improve Ultimate-Guitar.com Take our survey!
×
Contributor
Intro
G---------------------|---------------------|
D---------------------|---------------------|
A-7-------------------|-7-------------------|
E------5----7----5----|------5----7----5----|

("1-2-3-4!")
G-----------------------------------|-----------------------------------|
D-----------------------------------|-----------------------------------|
A-6/7-7-7-7-6/7-7-7-7-6/7-7-7-7-----|-6/7-7-7-7-6/7-7-7-7-6/7-7-7-7-----|
E-------------------------------7-7-|-------------------------------7-7-|

G-----------------------------------|-----------------------------------|
D-----------------------------------|-----------------------------------|
A-6/7-7-7-7-6/7-7-7-7-6/7-7-7-7-----|-6/7-7-7-7-6/7-7-7-7-6/7-7-7-7-----|
E-------------------------------7-7-|-------------------------------7-7-|

Verse
G-----------------------------------------------------------------|
D-----------9-9---------------------------------------------------|
A-7-7-7-7-7-----7-----------7-7-------------9-9-------------7-7---|
E-----------------5-5-5-5-5-----5-7-7-7-7-7-----7-5-5-5-5-5-----5-|

G-----------------------------------------------------------------|
D-----------9-9---------------------------------------------------|
A-7-7-7-7-7-----7-----------7-7-------------9-9-------------7-7---|
E-----------------5-5-5-5-5-----5-7-7-7-7-7-----7-5-5-5-5-5-----5-|

Pre-Chorus ("I don't, I don't want them in my home")
G-------------------------------------|-------------------------|
D-------------------------------------|-------------------------|
A-7-7--7-7-7-7-5-4-2------------------|-------------------6-7-9-|
E--------------------5-5--5-5-5-3-2-0-|-6/7-7-6/7-7-6/7-7-------|

(They're Commies...)
G-------------------------------------|-------------------------|
D-------------------------------------|-------------------------|
A-7-7--7-7-7-7-5-4-2------------------|-------------------6-7-9-|
E--------------------5-5--5-5-5-3-2-0-|-6/7-7-6/7-7-6/7-7-------|

Chorus ("They got nowhere to go so...") 
G--------------------|--------------------|--------------------|
D-----------99----99-|-----------99----99-|-----------99----99-|
A--------------77----|--------------77----|--------------77----|
E-5-5-5-5-7----------|-5-5-5-5-7----------|-5-5-5-5-7----------|

(Bomb The Boats...)
G---9-9-----------|
D-----------9-9---|
A-7-----7---------|
E---------7-----7-|

Verse
G-----------------------------------------------------------------|
D-----------9-9---------------------------------------------------|
A-7-7-7-7-7-----7-----------7-7-------------9-9-------------7-7---|
E-----------------5-5-5-5-5-----5-7-7-7-7-7-----7-5-5-5-5-5-----5-|

G-----------------------------------------------------------------|
D-----------9-9---------------------------------------------------|
A-7-7-7-7-7-----7-----------7-7-------------9-9-------------7-7---|
E-----------------5-5-5-5-5-----5-7-7-7-7-7-----7-5-5-5-5-5-----5-|

Pre-Chorus ("Do you, do you want them in your home")
G-------------------------------------|-------------------------|
D-------------------------------------|-------------------------|
A-7-7--7-7-7-7-5-4-2------------------|-------------------6-7-9-|
E--------------------5-5--5-5-5-3-2-0-|-6/7-7-6/7-7-6/7-7-------|

G-------------------------------------|-------------------------|
D-------------------------------------|-------------------------|
A-7-7--7-7-7-7-5-4-2------------------|-------------------6-7-9-|
E--------------------5-5--5-5-5-3-2-0-|-6/7-7-6/7-7-6/7-7-------|

Chorus ("They got nowhere to go so...") 
G--------------------|--------------------|--------------------|
D-----------99----99-|-----------99----99-|-----------99----99-|
A--------------77----|--------------77----|--------------77----|
E-5-5-5-5-7----------|-5-5-5-5-7----------|-5-5-5-5-7----------|

(Bomb The Boats, Feed The Fish)
G---9-9-----------|---9-9-----------|---9-9-----------|---9-9-----------|
D-----------9-9---|-----------9-9---|-----------9-9---|-----------9-9---|
A-7-----7---------|-7-----7---------|-7-----7---------|-7-----7---------|
E---------7-----7-|---------7-----7-|---------7-----7-|---------7-----7-|

Suggest correction new What's this?
You can suggest a correction to this tab. Community and Mods will review your correction and vote to approve or reject it.
comments
We did not receive enough feedback on this tab! Please rate:
print report bad tab
1 2 3 4 5
guest
You may want to rate the tab now too:
select rating
Please do not post tabs as comments. Select "correction" instead!