Oops, an error
Loading. Please wait.

Elvis Is Dead Bass Tab

304 views 1 this week
no commentswrite comment
1 2 3 4 5
3 more votes to show rating
add to favorites
launch autoscroll
font size
0
reset
guitar tuner
Autoscroll
slow
fast
+/-
esc
set tempo
stop
Help us to improve Ultimate-Guitar.com Take our survey!
×
Intro
G---------------------------------|
D-----0-2-3-2-0-------0-2-3-2-0---|
A---2-----------2---2-----------2-|
E-3---------------3---------------|
(drums and electric guitar come in)

Whole Song
G---------------------------------|-----0-2-3-2-0-------------------|
D-----0-2-3-2-0-------0-2-3-2-0---|---2-----------2-----0-2-3-2-0---|
A---2-----------2---2-----------2-|-3-----------------2-----------2-|
E-3---------------3---------------|-----------------3---------------|  

G------------------|-----------------|
D---4-7-4----2-5-2-|-----0-2-3-2-0---|
A-5--------3-------|---2-----------2-|
E------------------|-3---------------|

The Whole Song is repeated, it's just the one scale over and over till the song ends. 

___________________________________________________________________________
In love With The System Version
___________________________________________________________________________

Suggest correction
Give kudos to tab author, rate the tab!
1 2 3 4 5
comments
print report bad tab
guest
You may want to rate the tab now too:
select rating
Wanna post a correction for this tab? Suggest correction