Oops, an error
Loading. Please wait.

Elvis Is Dead Tab

153 views 1 this week
no commentswrite comment
1 2 3 4 5
please rate
add to favorites
launch autoscroll
font size
0
reset
how to read this tab
guitar tuner
Tab Pro tools
  • play this tab
  • loop segment
  • change instrument
  • show fretboard
  • metronome
×
Best way to learn
"Elvis Is Dead"
Autoscroll
slow
fast
+/-
esc
set tempo
stop
Difficulty
intermediate
Forgotten Rebels
Elvis is Dead

         .                        
|-3/10-|-3--6/5-3-------3---|-3--6/5-3-------3---|
|-3/10-|-3--------5---------|-3--------5---------|
|------|-4----------3h4---4-|-4----------3h4---4-|
|------|--------------------|--------------------|
|------|--------------------|--------------------|
|------|--------------------|--------------------|
 fingering: 3   1

  .
|-8-11\10-8--------8---|-3--6/5-3-------3---|
|-8---------10---------|-3--------5---------|
|-9------------8h9---9-|-4----------3h4---4-|
|----------------------|--------------------|
|----------------------|--------------------|
|----------------------|--------------------|

                                                   .   .
|-------10----------------8--------------3---------10--10--- ||
|----------10---------------8--------------3-------10--10--- ||
|-10/11-------11------8/9-----9------3/4-----4-----11--11---.||
|-----------------------------------------------------------.||
|----------------------------------------------------------- ||
|----------------------------------------------------------- ||
  2     1

|-3\2/3--6\5-3-------3----|-3\2/3--6\5-3-------3----|-6--/--13--\-|
|-3\2/3--------5----------|-3\2/3--------5----------|-8--/--15--\-|
|-4\3/4----------3h4---4--|-4\3/4----------3h4---4--|-9--/--16--\-|
|-------------------------|-------------------------|-------------|
|-------------------------|-------------------------|-------------|
|-------------------------|-------------------------|-------------|
                                                strum u/d FAST    

|-------10----------------8--------------3---------10--10---|
|----------10---------------8--------------3-------10--10---|
|-10/11-------11------8/9-----9------3/4-----4-----11--11---|
|-----------------------------------------------------------|
|-----------------------------------------------------------|
|-----------------------------------------------------------|


Solo:

  |-15-14-15----------------------15-14-15|-------12-----------------12---|
  |-------------------15-13-12-15---------|-15-12----15-12--15-15-12----15|
  |----------12-11-12---------------------|-------------------------------|
  |---------------------------------------|-------------------------------|
  |---------------------------------------|-------------------------------|
  |---------------------------------------|-------------------------------|
    4        2        4

  |---------------------------------------------7-7-------6-6-------|
  |-------------8-8--10-10-11-11-10-10-8-8----8-----8---------8-----|
  |--------9-9------------------------------9---------9-7-------9-7-|
  |-10-10-----------------------------------------------------------|
  |-----------------------------------------------------------------|
  |-----------------------------------------------------------------|
    3                                           2

  |-x--0~~~~~~--|-----------------full------|
  |-2--1~~~~~~--|-8-8-6-6---------^ --------|
  |-4--3~~~~~~--|---------7-7-5-5/ \--\3----|
  |-3--2~~~~~~--|------------------------0--|
  |-4--3~~~~~~--|---------------------------|
  |-x--x~~~~~~--|---------------------------|
       (c7)       4
  .                    .
|-3--6/5-3-------3---|-3--6/5-3-------3---|-6--/--13--\-|
|-3--------5---------|-3--------5---------|-8--/--15--\-|
|-4----------3h4---4-|-4----------3h4---4-|-9--/--16--\-|
|--------------------|--------------------|-------------|
|--------------------|--------------------|-------------|
|--------------------|--------------------|-------------|
                                           strum u/d Fast

                               .  legato                            
|-------10--------------8------3-|-----------------------11--10-|-10-\-|
|----------10-------------8----3-|-----------------------M---0--|-0--\-|
|-10/11-------11----8/9-----9--4-|-----------------------11--10-|-10-\-|
|--------------------------------|-5-5--3-3--2-2--1-1-0--10--9--|-9--\-|
|--------------------------------|-----------------------11--10-|-10-\-|
|--------------------------------|-----------------------x---x--|-x--\-|
                                                    mute=M  u/d
                                                            FAST
comments
We did not receive enough feedback on this tab! Please rate:
print report bad tab
1 2 3 4 5
I want to post or [tab]
guest
You may want to rate the tab now too:
select rating
Please do not post tabs as comments. Select "correction" instead!