Oops, an error
Loading. Please wait.

Fmd Bass Tab

306 views 3 this week
no commentswrite comment
1 2 3 4 5
please rate
add to favorites
launch autoscroll
font size
0
reset
guitar tuner
Autoscroll
slow
fast
+/-
esc
set tempo
stop
Help us to improve Ultimate-Guitar.com Take our survey!
×
Fuck Me Dead "Surfing On Heroin" version, this one's main differance is the final verse, 
keep that in mind if you've been playing the "In Love With The System Version"


Verse
G---------------------------|---------------------------|
D---------------------------|---------------------------|
A-------------------------7-|-------------------------7-|
E-5-5-5-5-5-5-5-5-5-5-5-5---|-5-5-5-5-5-5-5-5-5-5-5-5---|

G---------------------------|-----------------|
D---------------------------|-----------------|
A-------------------------7-|-5-5-7-7---------|
E-5-5-5-5-5-5-5-5-5-5-5-5---|---------5-5-5-5-|

G---------------------------|---------------------------|
D---------------------------|---------------------------|
A-------------------------7-|-------------------------7-|
E-5-5-5-5-5-5-5-5-5-5-5-5---|-5-5-5-5-5-5-5-5-5-5-5-5---|

G---------------------------|-----------------|-----------------|
D---------------------------|-----------------|-----------------|
A-------------------------7-|-5-5-7-7---------|-5-5-7-7---------|
E-5-5-5-5-5-5-5-5-5-5-5-5---|---------5-5-5-5-|---------5-5-5-5-|

"Every New Girls another 3 day affair...."
G-----------------------------------------------------------------|
D-----------------------------------------------------------------|
A-7-7-7-7-7-7-7-7-7-7-7-7-7-7-7-7-5-5-5-5-5-5-5-5-5-5-5-5-5-5-5-5-|
E-----------------------------------------------------------------|

G-----------------------------------------------------------------|
D-----------------------------------------------------------------|
A-7-7-7-7-7-7-7-7-7-7-7-7-7-7-7-7-5-5-5-5-5-5-5-5-5-5-5-5-5-5-5-5-|
E-----------------------------------------------------------------|

Verse
G---------------------------|---------------------------|
D---------------------------|---------------------------|
A-------------------------7-|-------------------------7-|
E-5-5-5-5-5-5-5-5-5-5-5-5---|-5-5-5-5-5-5-5-5-5-5-5-5---|

G---------------------------|-----------------|
D---------------------------|-----------------|
A-------------------------7-|-5-5-7-7---------|
E-5-5-5-5-5-5-5-5-5-5-5-5---|---------5-5-5-5-|

G---------------------------|---------------------------|
D---------------------------|---------------------------|
A-------------------------7-|-------------------------7-|
E-5-5-5-5-5-5-5-5-5-5-5-5---|-5-5-5-5-5-5-5-5-5-5-5-5---|

G---------------------------|-----------------|-----------------|
D---------------------------|-----------------|-----------------|
A-------------------------7-|-5-5-7-7---------|-5-5-7-7---------|
E-5-5-5-5-5-5-5-5-5-5-5-5---|---------5-5-5-5-|---------5-5-5-5-|

"Every New Girls another 3 day affair...."
G-----------------------------------------------------------------|
D-----------------------------------------------------------------|
A-7-7-7-7-7-7-7-7-7-7-7-7-7-7-7-7-5-5-5-5-5-5-5-5-5-5-5-5-5-5-5-5-|
E-----------------------------------------------------------------|

G-----------------------------------------------------------------|
D-----------------------------------------------------------------|
A-7-7-7-7-7-7-7-7-7-7-7-7-7-7-7-7-5-5-5-5-5-5-5-5-5-5-5-5-5-5-5-5-|
E-----------------------------------------------------------------|

Last Verse (Short) "Baby baby oh hold me close"
G---------------------------|---------------------------|
D---------------------------|---------------------------|
A-------------------------7-|-------------------------7-|
E-5-5-5-5-5-5-5-5-5-5-5-5---|-5-5-5-5-5-5-5-5-5-5-5-5---|

G---------------------------|-----------------|
D---------------------------|-----------------|
A-------------------------7-|-5-5-7-7---------|
E-5-5-5-5-5-5-5-5-5-5-5-5---|---------5-5-5-5-|

"Baby I love it when you fuck me dead..."
G-----------------|-----------------|-----------------|
D-----------------|-----------------|-----------------|
A-5-5-7-7---------|-5-5-7-7---------|-5-5-7-7---------|
E---------5-5-5-5-|---------5-5-5-5-|---------5-5-5-5-|
Suggest correction
Give kudos to tab author, rate the tab!
1 2 3 4 5
comments
print report bad tab
guest
You may want to rate the tab now too:
select rating
Please do not post tabs as comments. Select "correction" instead!