Oops, an error
Loading. Please wait.

Fuck Me Dead Bass Tab

342 views 1 this week
3 commentsread comments
1 2 3 4 5
please rate
add to favorites
launch autoscroll
font size
0
reset
guitar tuner
Tab Pro tools
  • play this tab
  • loop segment
  • change instrument
  • show fretboard
  • metronome
×
Best way to learn
"Fuck Me Dead"
Autoscroll
slow
fast
+/-
esc
set tempo
stop
Contributor
Verse
G--------------------------9--|---------------------------9-|
D-----------------------------|-----------------------------|
A-------------------------7---|-------------------------7---|
E-5-5-5-5-5-5-5-5-5-5-5-5-----|-5-5-5-5-5-5-5-5-5-5-5-5-----|

G---------------------------9-|---7---9---------|
D-----------------------------|-----------7-7-5-|
A-------------------------7---|-5---7-----------|
E-5-5-5-5-5-5-5-5-5-5-5-5-----|---------5-------|

G--------------------------9--|---------------------------9-|
D-----------------------------|-----------------------------|
A-------------------------7---|-------------------------7---|
E-5-5-5-5-5-5-5-5-5-5-5-5-----|-5-5-5-5-5-5-5-5-5-5-5-5-----|

G---------------------------9-|---7---9---------|---7---9---------|
D-----------------------------|-----------7-7-5-|-----------7-7-5-|
A-------------------------7---|-5---7-----------|-5---7-----------|
E-5-5-5-5-5-5-5-5-5-5-5-5-----|---------5-------|---------5-------|

"Every New Girls another 3 day affair...."
G-----------------------------------------------------------------|
D-----9-9-----9-9-----9-9-----9-9-----7-7-----7-7-----7-7-----7-7-|
A-7-7-----7-7-----7-7-----7-7-----5-5-----5-5-----5-5-----5-5-----|
E-----------------------------------------------------------------|

G-----------------------------------------------------------------|
D-----9-9-----9-9-----9-9-----9-9-----7-7-----7-7-----7-7-----7-7-|
A-7-7-----7-7-----7-7-----7-7-----5-5-----5-5-----5-5-----5-5-----|
E-----------------------------------------------------------------|

Verse
G--------------------------9--|---------------------------9-|
D-----------------------------|-----------------------------|
A-------------------------7---|-------------------------7---|
E-5-5-5-5-5-5-5-5-5-5-5-5-----|-5-5-5-5-5-5-5-5-5-5-5-5-----|

G---------------------------9-|---7---9---------|
D-----------------------------|-----------7-7-5-|
A-------------------------7---|-5---7-----------|
E-5-5-5-5-5-5-5-5-5-5-5-5-----|---------5-------|

G--------------------------9--|---------------------------9-|
D-----------------------------|-----------------------------|
A-------------------------7---|-------------------------7---|
E-5-5-5-5-5-5-5-5-5-5-5-5-----|-5-5-5-5-5-5-5-5-5-5-5-5-----|

G---------------------------9-|---7---9---------|---7---9---------|
D-----------------------------|-----------7-7-5-|-----------7-7-5-|
A-------------------------7---|-5---7-----------|-5---7-----------|
E-5-5-5-5-5-5-5-5-5-5-5-5-----|---------5-------|---------5-------|

"Every New Girls another 3 day affair...."
G-----------------------------------------------------------------|
D-----9-9-----9-9-----9-9-----9-9-----7-7-----7-7-----7-7-----7-7-|
A-7-7-----7-7-----7-7-----7-7-----5-5-----5-5-----5-5-----5-5-----|
E-----------------------------------------------------------------|

G-----------------------------------------------------------------|
D-----9-9-----9-9-----9-9-----9-9-----7-7-----7-7-----7-7-----7-7-|
A-7-7-----7-7-----7-7-----7-7-----5-5-----5-5-----5-5-----5-5-----|
E-----------------------------------------------------------------|

"Baby baby oh hold me close"
G-----------------|-----------------|-----------------|
D-----------------|-----------------|-----------------|
A-----------------|-----------------|-----------------|
E-5-5-5-5-2-2-0-0-|-5-5-5-5-2-2-0-0-|-5-5-5-5-2-2-0-0-|

"Baby I love it when you fuck me dead..."
G---7---9---------|---7---9---------|---7---9---------|
D-----------7-7-5-|-----------7-7-5-|-----------7-7-5-|
A-5---7-----------|-5---7-----------|-5---7-----------|
E---------5-------|---------5-------|---------5-------|

___________________________________________________________________________
In love With The System Version
___________________________________________________________________________
comments
We did not receive enough feedback on this tab! Please rate:
print report bad tab
1 2 3 4 5
3 comments total.
0 reply
jak_daniels wrote on July 28 2008, 03:26 am

looks alright to me. but iveonly been playing for 6 months.

0 reply
jak_daniels wrote on September 3 2008, 01:30 pm

that and its a little bit over complicated. still alright either way.

0 reply
jak_daniels wrote on September 9 2008, 01:27 pm

when he mick says baby i love it when you **** me dead, i sure it sounds a lil bit more like this, its just a suggestion try it out and let me know.


"Baby I love it when you **** me dead..."
G---7---9---------|---7---9---------|---7---9---------|
D-----------7-5-7-|-----------7-5-7-|-----------7-5-7-|
A-5---7-----------|-5---7-----------|-5---7-----------|
E---------5-------|---------5-------|---------5-------|


this is just a guess, so dont gut me like a fish.

I want to post or [tab]
guest
You may want to rate the tab now too:
select rating
Please do not post tabs as comments. Select "correction" instead!