Oops, an error
Loading. Please wait.

Fuck Me Dead Tab

568 views 1 this week
no commentswrite comment
1 2 3 4 5
please rate
add to favorites
launch autoscroll
font size
0
reset
how to read this tab
guitar tuner
Autoscroll
slow
fast
+/-
esc
set tempo
stop
Help us to improve Ultimate-Guitar.com Take our survey!
×
Contributor
Verse
E-----------------------------|-----------------------------|
B-----------------------------|-----------------------------|
G-------------------------9-9-|-------------------------9-9-|
D-7-7-7-7-7-7-7-7-7-7-7-7-9-9-|-7-7-7-7-7-7-7-7-7-7-7-7-9-9-|
A-7-7-7-7-7-7-7-7-7-7-7-7-7-7-|-7-7-7-7-7-7-7-7-7-7-7-7-7-7-|
E-5-5-5-5-5-5-5-5-5-5-5-5-----|-5-5-5-5-5-5-5-5-5-5-5-5-----|

E-----------------------------|-----------------|
B-----------------------------|-----------------|
G-------------------------9-9-|-7-7-9-9---------|
D-7-7-7-7-7-7-7-7-7-7-7-7-9-9-|-7-7-9-9-7-7-7-7-|
A-7-7-7-7-7-7-7-7-7-7-7-7-7-7-|-5-5-7-7-7-7-7-7-|
E-5-5-5-5-5-5-5-5-5-5-5-5-----|---------5-5-5-5-|

E-----------------------------|-----------------------------|
B-----------------------------|-----------------------------|
G-------------------------9-9-|-------------------------9-9-|
D-7-7-7-7-7-7-7-7-7-7-7-7-9-9-|-7-7-7-7-7-7-7-7-7-7-7-7-9-9-|
A-7-7-7-7-7-7-7-7-7-7-7-7-7-7-|-7-7-7-7-7-7-7-7-7-7-7-7-7-7-|
E-5-5-5-5-5-5-5-5-5-5-5-5-----|-5-5-5-5-5-5-5-5-5-5-5-5-----|

E-----------------------------|-----------------|-----------------|
B-----------------------------|-----------------|-----------------|
G-------------------------9-9-|-7-7-9-9---------|-7-7-9-9---------|
D-7-7-7-7-7-7-7-7-7-7-7-7-9-9-|-7-7-9-9-7-7-7-7-|-7-7-9-9-7-7-7-7-|
A-7-7-7-7-7-7-7-7-7-7-7-7-7-7-|-5-5-7-7-7-7-7-7-|-5-5-7-7-7-7-7-7-|
E-5-5-5-5-5-5-5-5-5-5-5-5-----|---------5-5-5-5-|---------5-5-5-5-|

"Every New Girls another 3 day affair...."
E-----------------------------------------------------------|
B-----------------------------------------------------------|
G-9-9-9-9-9-9-9-9-9-9-9-9-9-9-9-9-7-7-7-7-7-7-7-7-7-7-7-7-7-|
D-9-9-9-9-9-9-9-9-9-9-9-9-9-9-9-9-7-7-7-7-7-7-7-7-7-7-7-7-7-|
A-7-7-7-7-7-7-7-7-7-7-7-7-7-7-7-7-5-5-5-5-5-5-5-5-5-5-5-5-5-|
E-----------------------------------------------------------|

E-----------------------------------------------------------|
B-----------------------------------------------------------|
G-9-9-9-9-9-9-9-9-9-9-9-9-9-9-9-9-7-7-7-7-7-7-7-7-7-7-7-7-7-|
D-9-9-9-9-9-9-9-9-9-9-9-9-9-9-9-9-7-7-7-7-7-7-7-7-7-7-7-7-7-|
A-7-7-7-7-7-7-7-7-7-7-7-7-7-7-7-7-5-5-5-5-5-5-5-5-5-5-5-5-5-|
E-----------------------------------------------------------|

Verse
E-----------------------------|-----------------------------|
B-----------------------------|-----------------------------|
G-------------------------9-9-|-------------------------9-9-|
D-7-7-7-7-7-7-7-7-7-7-7-7-9-9-|-7-7-7-7-7-7-7-7-7-7-7-7-9-9-|
A-7-7-7-7-7-7-7-7-7-7-7-7-7-7-|-7-7-7-7-7-7-7-7-7-7-7-7-7-7-|
E-5-5-5-5-5-5-5-5-5-5-5-5-----|-5-5-5-5-5-5-5-5-5-5-5-5-----|

E-----------------------------|-----------------|
B-----------------------------|-----------------|
G-------------------------9-9-|-7-7-9-9---------|
D-7-7-7-7-7-7-7-7-7-7-7-7-9-9-|-7-7-9-9-7-7-7-7-|
A-7-7-7-7-7-7-7-7-7-7-7-7-7-7-|-5-5-7-7-7-7-7-7-|
E-5-5-5-5-5-5-5-5-5-5-5-5-----|---------5-5-5-5-|

E-----------------------------|-----------------------------|
B-----------------------------|-----------------------------|
G-------------------------9-9-|-------------------------9-9-|
D-7-7-7-7-7-7-7-7-7-7-7-7-9-9-|-7-7-7-7-7-7-7-7-7-7-7-7-9-9-|
A-7-7-7-7-7-7-7-7-7-7-7-7-7-7-|-7-7-7-7-7-7-7-7-7-7-7-7-7-7-|
E-5-5-5-5-5-5-5-5-5-5-5-5-----|-5-5-5-5-5-5-5-5-5-5-5-5-----|

E-----------------------------|-----------------|-----------------|
B-----------------------------|-----------------|-----------------|
G-------------------------9-9-|-7-7-9-9---------|-7-7-9-9---------|
D-7-7-7-7-7-7-7-7-7-7-7-7-9-9-|-7-7-9-9-7-7-7-7-|-7-7-9-9-7-7-7-7-|
A-7-7-7-7-7-7-7-7-7-7-7-7-7-7-|-5-5-7-7-7-7-7-7-|-5-5-7-7-7-7-7-7-|
E-5-5-5-5-5-5-5-5-5-5-5-5-----|---------5-5-5-5-|---------5-5-5-5-|

"Every New Girls another 3 day affair...."
E-----------------------------------------------------------|
B-----------------------------------------------------------|
G-9-9-9-9-9-9-9-9-9-9-9-9-9-9-9-9-7-7-7-7-7-7-7-7-7-7-7-7-7-|
D-9-9-9-9-9-9-9-9-9-9-9-9-9-9-9-9-7-7-7-7-7-7-7-7-7-7-7-7-7-|
A-7-7-7-7-7-7-7-7-7-7-7-7-7-7-7-7-5-5-5-5-5-5-5-5-5-5-5-5-5-|
E-----------------------------------------------------------|

E-----------------------------------------------------------|
B-----------------------------------------------------------|
G-9-9-9-9-9-9-9-9-9-9-9-9-9-9-9-9-7-7-7-7-7-7-7-7-7-7-7-7-7-|
D-9-9-9-9-9-9-9-9-9-9-9-9-9-9-9-9-7-7-7-7-7-7-7-7-7-7-7-7-7-|
A-7-7-7-7-7-7-7-7-7-7-7-7-7-7-7-7-5-5-5-5-5-5-5-5-5-5-5-5-5-|
E-----------------------------------------------------------|

"Baby baby oh hold me close"
E-----------------|-----------------|-----------------|
B-----------------|-----------------|-----------------|
G-----------------|-----------------|-----------------|
D-7-7-7-7-4-4-2-2-|-7-7-7-7-4-4-2-2-|-7-7-7-7-4-4-2-2-|
A-7-7-7-7-4-4-2-2-|-7-7-7-7-4-4-2-2-|-7-7-7-7-4-4-2-2-|
E-5-5-5-5-2-2-0-0-|-5-5-5-5-2-2-0-0-|-5-5-5-5-2-2-0-0-|

"Baby I love it when you fuck me dead..."
E-----------------|-----------------|-----------------|
B-----------------|-----------------|-----------------|
G-7-7-9-9---------|-7-7-9-9---------|-7-7-9-9-7-7-7-7-|
D-7-7-9-9-7-7-7-7-|-7-7-9-9-7-7-7-7-|-7-7-9-9-7-7-7-7-|
A-5-5-7-7-7-7-7-7-|-5-5-7-7-7-7-7-7-|-5-5-7-7-7-7-7-7-|
E---------5-5-5-5-|---------5-5-5-5-|---------5-5-5-5-|
comments
We did not receive enough feedback on this tab! Please rate:
print report bad tab
1 2 3 4 5
I want to post or [tab]
guest
You may want to rate the tab now too:
select rating
Please do not post tabs as comments. Select "correction" instead!