Oops, an error
Loading. Please wait.

I Left My Heart In Iran Bass Tab

255 views 1 this week
no commentswrite comment
1 2 3 4 5
3 more votes to show rating
add to favorites
launch autoscroll
font size
0
reset
guitar tuner
Autoscroll
slow
fast
+/-
esc
set tempo
stop
Help us to improve Ultimate-Guitar.com Take our survey!
×
This is the "Surfing On Heroin" Version (2:15 Seconds Long)

Intro
G---------------------------------|
D---------------------------------|
A---------5-5-5-5-7-7-7-7-7-7-7-7-|
E-5-5-5-5-------------------------|

Verse x2
G-----------------------------------------------------------------|
D-----------------------------------------------------------------|
A-----------------5-5-5-5-5-5-5-5-----------------7-7-7-7-7-7-7-7-|
E-5-5-5-5-5-5-5-5-----------------5-5-5-5-5-5-5-5-----------------|

Chorus x4
G---------------------------------|
D---------------------------------|
A---------5-5-5-5-7-7-7-7-7-7-7-7-|
E-5-5-5-5-------------------------|

Verse x2
G-----------------------------------------------------------------|
D-----------------------------------------------------------------|
A-----------------5-5-5-5-5-5-5-5-----------------7-7-7-7-7-7-7-7-|
E-5-5-5-5-5-5-5-5-----------------5-5-5-5-5-5-5-5-----------------|

Chorus x4
G---------------------------------|
D---------------------------------|
A---------5-5-5-5-7-7-7-7-7-7-7-7-|
E-5-5-5-5-------------------------|

**DROP THE BOMBS BOYS**

Chorus x3 (fade Out)
G---------------------------------|
D---------------------------------|
A---------5-5-5-5-7-7-7-7-7-7-7-7-|
E-5-5-5-5-------------------------|

Suggest correction
Give kudos to tab author, rate the tab!
1 2 3 4 5
comments
print report bad tab
guest
You may want to rate the tab now too:
select rating
Wanna post a correction for this tab? Suggest correction