Oops, an error
Loading. Please wait.

I Think Of Her Bass Tab

232 views 6 this week
no commentswrite comment
1 2 3 4 5
please rate
add to favorites
launch autoscroll
font size
0
reset
guitar tuner
Tab Pro tools
  • play this tab
  • loop segment
  • change instrument
  • show fretboard
  • metronome
×
Best way to learn
"I Think Of Her"
Autoscroll
slow
fast
+/-
esc
set tempo
stop
Contributor
Intro x2
G-----------------------------------------------------------------|
D-------------------------------------7-7-----7-7-----9-9-----9-9-|
A-----7-7-----7-7-----7-7-----7-7---------------------------------|
E-0-0-----0-0-----0-0-----0-0-----5-5-----5-5-----7-7-----7-7-----|

Verse x4
G-----------------------------------------------------------------|
D-------------------------------------7-7-----7-7-----9-9-----9-9-|
A-----7-7-----7-7-----7-7-----7-7---------------------------------|
E-0-0-----0-0-----0-0-----0-0-----5-5-----5-5-----7-7-----7-7-----|

Chorus x4
G-----7-7-------------------------|
D-----------------------------7-7-|
A-5-5-----7-7-7-7-----------------|
E-----------------5-5-5-5-5-5-----|

After Chorus x1
G---------------------------------|
D---------------------------------|
A---------------------------------|
E-0-0-3-3-0-0-3-3-0-0-3-3-0-0-3-3-|

Verse x4
G-----------------------------------------------------------------|
D-------------------------------------7-7-----7-7-----9-9-----9-9-|
A-----7-7-----7-7-----7-7-----7-7---------------------------------|
E-0-0-----0-0-----0-0-----0-0-----5-5-----5-5-----7-7-----7-7-----|

Chorus x4
G-----7-7-------------------------|
D-----------------------------7-7-|
A-5-5-----7-7-7-7-----------------|
E-----------------5-5-5-5-5-5-----|

Intro (Behind Solo) x2
G-----------------------------------------------------------------|
D-------------------------------------7-7-----7-7-----9-9-----9-9-|
A-----7-7-----7-7-----7-7-----7-7---------------------------------|
E-0-0-----0-0-----0-0-----0-0-----5-5-----5-5-----7-7-----7-7-----|

Chorus (Repeat till end)
G-----7-7-------------------------|
D-----------------------------7-7-|
A-5-5-----7-7-7-7-----------------|
E-----------------5-5-5-5-5-5-----|
comments
We did not receive enough feedback on this tab! Please rate:
print report bad tab
1 2 3 4 5
I want to post or [tab]
guest
You may want to rate the tab now too:
select rating
Please do not post tabs as comments. Select "correction" instead!