Oops, an error
Loading. Please wait.

In Love With The System Bass Tab

230 views 1 this week
no commentswrite comment
1 2 3 4 5
please rate
add to favorites
launch autoscroll
font size
0
reset
guitar tuner
Autoscroll
slow
fast
+/-
esc
set tempo
stop
Help us to improve Ultimate-Guitar.com Take our survey!
×
Intro                        x3
G--------------------7---5---4-|-----------------------|
D------------------------------|-----------------5---5-|
A---------3--3-3--5----3---2---|--------3--3-3---------|
E-3--3-3-----------------------|-3--3-3--------3---3---|

Verse
G-----------5---5-----------7---7-----------5---5---------------7---5---4-|
D---5---5-----------5---5-----------5---5-----------5---5-----------------|
A---------3---3-----------5---5-----------3---3--------------5----3---2---|
E-3---3-----------3---3-----------3---3-----------3---3-------------------|

Chorus                           x3
G--------------------7---5---4-|-----------------------|
D------------------------------|-----------------5---5-|
A---------3--3-3--5----3---2---|--------3--3-3---------|
E-3--3-3-----------------------|-3--3-3--------3---3---|

Verse
G-----------5---5-----------7---7-----------5---5---------------7---5---4-|
D---5---5-----------5---5-----------5---5-----------5---5-----------------|
A---------3---3-----------5---5-----------3---3--------------5----3---2---|
E-3---3-----------3---3-----------3---3-----------3---3-------------------|

Chorus                           x3
G--------------------7---5---4-|-----------------------|
D------------------------------|-----------------5---5-|
A---------3--3-3--5----3---2---|--------3--3-3---------|
E-3--3-3-----------------------|-3--3-3--------3---3---|

Verse
G-----------5---5-----------7---7-----------5---5---------------7---5---4-|
D---5---5-----------5---5-----------5---5-----------5---5-----------------|
A---------3---3-----------5---5-----------3---3--------------5----3---2---|
E-3---3-----------3---3-----------3---3-----------3---3-------------------|

Chorus                           x3
G--------------------7---5---4-|-----------------------|
D------------------------------|-----------------5---5-|
A---------3--3-3--5----3---2---|--------3--3-3---------|
E-3--3-3-----------------------|-3--3-3--------3---3---|

Solo
G-----------5---5-----------7---7-----------5---5---------------7---5---4-|
D---5---5-----------5---5-----------5---5-----------5---5-----------------|
A---------3---3-----------5---5-----------3---3--------------5----3---2---|
E-3---3-----------3---3-----------3---3-----------3---3-------------------|

Chorus                           x3
G--------------------7---5---4-|-----------------------|
D------------------------------|-----------------5---5-|
A---------3--3-3--5----3---2---|--------3--3-3---------|
E-3--3-3-----------------------|-3--3-3--------3---3---|

Outro (repeat and fade out)
G-----------------------|
D-----------------5---5-|
A--------3--3-3---------|
E-3--3-3--------3---3---|

___________________________________________________________________________
In love With The System Version
___________________________________________________________________________
Suggest correction
Give kudos to tab author, rate the tab!
1 2 3 4 5
comments
print report bad tab
guest
You may want to rate the tab now too:
select rating
Please do not post tabs as comments. Select "correction" instead!