Oops, an error
Loading. Please wait.

No Beatles Reunion Tab

777 views 1 this week
no commentswrite comment
1 2 3 4 5
please rate
add to favorites
launch autoscroll
font size
0
reset
how to read this tab
guitar tuner
Autoscroll
slow
fast
+/-
esc
set tempo
stop
Help us to improve Ultimate-Guitar.com Take our survey!
×
Intro
E-----------------|-----------------|
B-----------------|-----------------|
G-----4-4-7-7-7-7-|-----4-4-7-7-7-7-|
D-5-5-4-4-7-7-7-7-|-5-5-4-4-7-7-7-7-|
A-5-5-2-2-5-5-5-5-|-5-5-2-2-5-5-5-5-|
E-3-3-------------|-3-3-------------|

Verse
E-----------------|-----------------|-----------------|-----------------|
B-----------------|-----------------|-----------------|-----------------|
G-----4-4-7-7-7-7-|-----4-4-7-7-7-7-|-----4-4-7-7-7-7-|-----4-4-7-7-7-7-|
D-5-5-4-4-7-7-7-7-|-5-5-4-4-7-7-7-7-|-5-5-4-4-7-7-7-7-|-5-5-4-4-7-7-7-7-|
A-5-5-2-2-5-5-5-5-|-5-5-2-2-5-5-5-5-|-5-5-2-2-5-5-5-5-|-5-5-2-2-5-5-5-5-|
E-3-3-------------|-3-3-------------|-3-3-------------|-3-3-------------|

Verse Part 2("sentimental shit")
E---------------------------------|---------------------------------|
B---------------------------------|---------------------------------|
G---------7-7-7-7-5-5-5-5-9-9-7-7-|---------7-7-7-7-5-5-5-5-9-9-7-7-|
D-5-5-5-5-7-7-7-7-5-5-5-5-9-9-7-7-|-5-5-5-5-7-7-7-7-5-5-5-5-9-9-7-7-|
A-5-5-5-5-5-5-5-5-3-3-3-3-7-7-5-5-|-5-5-5-5-5-5-5-5-3-3-3-3-7-7-5-5-|
E-3-3-3-3-------------------------|-3-3-3-3-------------------------|

Pre-Chorus ("You put them on a phony pedestal and gave them your money")
E--------------------------------|--------------------------------|
B--------------------------------|--------------------------------|
G-5-5-5-5-5-5-5-5--7-7-7-7--12-7-|-5-5-5-5-5-5-5-5--7-7-7-7--12-7-|
D-5-5-5-5-5-5-5-5--7-7-7-7--12-7-|-5-5-5-5-5-5-5-5--7-7-7-7--12-7-|
A-3-3-3-3-3-3-3-3--5-5-5-5--10-5-|-3-3-3-3-3-3-3-3--5-5-5-5--10-5-|
E--------------------------------|--------------------------------|

Chorus ("To hell with the Beatles reunion")
E---------------------------------|---------------------------------|
B---------------------------------|---------------------------------|
G---------7-7-7-7-5-5-5-5-9-9-7-7-|---------7-7-7-7-5-5-5-5-9-9-7-7-|
D-5-5-5-5-7-7-7-7-5-5-5-5-9-9-7-7-|-5-5-5-5-7-7-7-7-5-5-5-5-9-9-7-7-|
A-5-5-5-5-5-5-5-5-3-3-3-3-7-7-5-5-|-5-5-5-5-5-5-5-5-3-3-3-3-7-7-5-5-|
E-3-3-3-3-------------------------|-3-3-3-3-------------------------|

Verse
E-----------------|-----------------|-----------------|-----------------|
B-----------------|-----------------|-----------------|-----------------|
G-----4-4-7-7-7-7-|-----4-4-7-7-7-7-|-----4-4-7-7-7-7-|-----4-4-7-7-7-7-|
D-5-5-4-4-7-7-7-7-|-5-5-4-4-7-7-7-7-|-5-5-4-4-7-7-7-7-|-5-5-4-4-7-7-7-7-|
A-5-5-2-2-5-5-5-5-|-5-5-2-2-5-5-5-5-|-5-5-2-2-5-5-5-5-|-5-5-2-2-5-5-5-5-|
E-3-3-------------|-3-3-------------|-3-3-------------|-3-3-------------|

Verse Part 2("sentimental shit")
E---------------------------------|---------------------------------|
B---------------------------------|---------------------------------|
G---------7-7-7-7-5-5-5-5-9-9-7-7-|---------7-7-7-7-5-5-5-5-9-9-7-7-|
D-5-5-5-5-7-7-7-7-5-5-5-5-9-9-7-7-|-5-5-5-5-7-7-7-7-5-5-5-5-9-9-7-7-|
A-5-5-5-5-5-5-5-5-3-3-3-3-7-7-5-5-|-5-5-5-5-5-5-5-5-3-3-3-3-7-7-5-5-|
E-3-3-3-3-------------------------|-3-3-3-3-------------------------|

Pre-Chorus ("You put them on a phony pedestal and gave them your money")
E--------------------------------|--------------------------------|
B--------------------------------|--------------------------------|
G-5-5-5-5-5-5-5-5--7-7-7-7--12-7-|-5-5-5-5-5-5-5-5--7-7-7-7--12-7-|
D-5-5-5-5-5-5-5-5--7-7-7-7--12-7-|-5-5-5-5-5-5-5-5--7-7-7-7--12-7-|
A-3-3-3-3-3-3-3-3--5-5-5-5--10-5-|-3-3-3-3-3-3-3-3--5-5-5-5--10-5-|
E--------------------------------|--------------------------------|

Chorus ("To hell with the Beatles reunion")
E---------------------------------|---------------------------------|
B---------------------------------|---------------------------------|
G---------7-7-7-7-5-5-5-5-9-9-7-7-|---------7-7-7-7-5-5-5-5-9-9-7-7-|
D-5-5-5-5-7-7-7-7-5-5-5-5-9-9-7-7-|-5-5-5-5-7-7-7-7-5-5-5-5-9-9-7-7-|
A-5-5-5-5-5-5-5-5-3-3-3-3-7-7-5-5-|-5-5-5-5-5-5-5-5-3-3-3-3-7-7-5-5-|
E-3-3-3-3-------------------------|-3-3-3-3-------------------------|

Solo
E-3---3---3---3---5-|-3---3---3---3---5-|-^-^-------------|^-^-------------|
B---3---3---3---3---|---3---3---3---3---|-3-3-^-^-^-^-^-^-|3-3-^-^-^-^-^-^-|
G-------------------|-------------------|-----5-5-5-3-3-5-|----5-5-5-3-3-5-|
D-------------------|-------------------|-----------------|----------------|
A-------------------|-------------------|-----------------|----------------|
E-------------------|-------------------|-----------------|----------------|

E-3---3---3---3---5-|-3---3---3---3---5-|
B---3---3---3---3---|---3---3---3---3---|
G-------------------|-------------------|
D-------------------|-------------------|
A-------------------|-------------------|
E-------------------|-------------------|

Verse Part 2("sentimental shit")
E---------------------------------|---------------------------------|
B---------------------------------|---------------------------------|
G---------7-7-7-7-5-5-5-5-9-9-7-7-|---------7-7-7-7-5-5-5-5-9-9-7-7-|
D-5-5-5-5-7-7-7-7-5-5-5-5-9-9-7-7-|-5-5-5-5-7-7-7-7-5-5-5-5-9-9-7-7-|
A-5-5-5-5-5-5-5-5-3-3-3-3-7-7-5-5-|-5-5-5-5-5-5-5-5-3-3-3-3-7-7-5-5-|
E-3-3-3-3-------------------------|-3-3-3-3-------------------------|

Pre-Chorus ("You put them on a phony pedestal and gave them your money")
E--------------------------------|--------------------------------|
B--------------------------------|--------------------------------|
G-5-5-5-5-5-5-5-5--7-7-7-7--12-7-|-5-5-5-5-5-5-5-5--7-7-7-7--12-7-|
D-5-5-5-5-5-5-5-5--7-7-7-7--12-7-|-5-5-5-5-5-5-5-5--7-7-7-7--12-7-|
A-3-3-3-3-3-3-3-3--5-5-5-5--10-5-|-3-3-3-3-3-3-3-3--5-5-5-5--10-5-|
E--------------------------------|--------------------------------|

Chorus ("To hell with the Beatles reunion")
E---------------------------------|---------------------------------|
B---------------------------------|---------------------------------|
G---------7-7-7-7-5-5-5-5-9-9-7-7-|---------7-7-7-7-5-5-5-5-9-9-7-7-|
D-5-5-5-5-7-7-7-7-5-5-5-5-9-9-7-7-|-5-5-5-5-7-7-7-7-5-5-5-5-9-9-7-7-|
A-5-5-5-5-5-5-5-5-3-3-3-3-7-7-5-5-|-5-5-5-5-5-5-5-5-3-3-3-3-7-7-5-5-|
E-3-3-3-3-------------------------|-3-3-3-3-------------------------|

Verse ("we don't smoke the same cigarettes")
E-----------------|-----------------|-----------------|-----------------|
B-----------------|-----------------|-----------------|-----------------|
G-----4-4-7-7-7-7-|-----4-4-7-7-7-7-|-----4-4-7-7-7-7-|-----4-4-7-7-7-7-|
D-5-5-4-4-7-7-7-7-|-5-5-4-4-7-7-7-7-|-5-5-4-4-7-7-7-7-|-5-5-4-4-7-7-7-7-|
A-5-5-2-2-5-5-5-5-|-5-5-2-2-5-5-5-5-|-5-5-2-2-5-5-5-5-|-5-5-2-2-5-5-5-5-|
E-3-3-------------|-3-3-------------|-3-3-------------|-3-3-------------|
Suggest correction
Give kudos to tab author, rate the tab!
1 2 3 4 5
comments
print report bad tab
guest
You may want to rate the tab now too:
select rating
Please do not post tabs as comments. Select "correction" instead!