Oops, an error
Loading. Please wait.

Rich And Bored Bass Tab

214 views 1 this week
no commentswrite comment
1 2 3 4 5
please rate
add to favorites
launch autoscroll
font size
0
reset
guitar tuner
Autoscroll
slow
fast
+/-
esc
set tempo
stop
Help us to improve Ultimate-Guitar.com Take our survey!
×
Intro x2
G---------------------------|
D---------------------------|
A-2-2/3-3-2-2/3-3--5-5------|
E-----------------------3-3-|

Chorus x4
G---------------------------|
D---------------------------|
A-2-2/3-3-2-2/3-3--5-5------|
E-----------------------3-3-|

Verse
G-----------------------------------|-----------------------------------|
D-----------------------------------|-----------------------------------|
A-3-3-3-3-3-3-5-5-5-5-5-5-----------|-3-3-3-3-3-3-5-5-5-5-5-5-----------|
E--------------------------3-3--3-3-|--------------------------3-3--3-3-|

G-----------------------------------|-----------------------------------|
D-----------------------------------|-----------------------------------|
A-3-3-3-3-3-3-5-5-5-5-5-5-----------|-3-3-3-3-3-3-5-5-5-5-5-5-----------|
E--------------------------3-3--3-3-|-----------------------------------|

Chorus x4
G---------------------------|
D---------------------------|
A-2-2/3-3-2-2/3-3--5-5------|
E-----------------------3-3-|

Verse
G-----------------------------------|-----------------------------------|
D-----------------------------------|-----------------------------------|
A-3-3-3-3-3-3-5-5-5-5-5-5-----------|-3-3-3-3-3-3-5-5-5-5-5-5-----------|
E--------------------------3-3--3-3-|--------------------------3-3--3-3-|

G-----------------------------------|-----------------------------------|
D-----------------------------------|-----------------------------------|
A-3-3-3-3-3-3-5-5-5-5-5-5-----------|-3-3-3-3-3-3-5-5-5-5-5-5-----------|
E--------------------------3-3--3-3-|-----------------------------------|

Solo x4
G---------------------------|
D---------------------------|
A-2-2/3-3-2-2/3-3--5-5------|
E-----------------------3-3-|

Verse
G-----------------------------------|-----------------------------------|
D-----------------------------------|-----------------------------------|
A-3-3-3-3-3-3-5-5-5-5-5-5-----------|-3-3-3-3-3-3-5-5-5-5-5-5-----------|
E--------------------------3-3--3-3-|--------------------------3-3--3-3-|

G-----------------------------------|-----------------------------------|
D-----------------------------------|-----------------------------------|
A-3-3-3-3-3-3-5-5-5-5-5-5-----------|-3-3-3-3-3-3-5-5-5-5-5-5-----------|
E--------------------------3-3--3-3-|-----------------------------------|
Suggest correction
Give kudos to tab author, rate the tab!
1 2 3 4 5
comments
print report bad tab
guest
You may want to rate the tab now too:
select rating
Please do not post tabs as comments. Select "correction" instead!