Oops, an error
Loading. Please wait.

Third Homosexual Murder Bass Tab

207 views 1 this week
no commentswrite comment
1 2 3 4 5
3 more votes to show rating
add to favorites
launch autoscroll
font size
0
reset
guitar tuner
Autoscroll
slow
fast
+/-
esc
set tempo
stop
Help us to improve Ultimate-Guitar.com Take our survey!
×
Intro               
G---------------------|---------------------|
D---------------------|---------------------|
A-0-0-------0-0-------|-0-0-------0-0-------|
E------2-2-------0-0--|------2-2-------0-0--|

Verse                          
G---------------------------------|---------------------------------|
D---------------------------------|---------------------------------|
A-0-0-0-0---------0-0-0-0---------|-0-0-0-0---------0-0-0-0---------|
E---------2-2-2-2---------0-0-0-0-|---------2-2-2-2---------0-0-0-0-|

Pre-Chorus
G-----------------------------------------------------------------|
D-----------------------------------------------------------------|
A---------5-5-5-5---------5-5-5-5---------5-5-5-5-7-7-7-7-7-7-7-7-|
E-5-5-5-5---------5-5-5-5---------5-5-5-5-------------------------|

Chorus
G-----------------------------------------------------------------|
D-----------------------------------------------------------------|
A---------7-7-7-7---------5-5-5-5---------7-7-7-7-5-5-5-5-7-7-7-7-|
E-5-5-5-5---------5-5-5-5---------5-5-5-5-------------------------|

Verse 2                         
G---------------------------------|---------------------------------|
D---------------------------------|---------------------------------|
A-0-0-0-0---------0-0-0-0---------|-0-0-0-0---------0-0-0-0---------|
E---------2-2-2-2---------0-0-0-0-|---------2-2-2-2---------0-0-0-0-|

Pre-Chorus
G-----------------------------------------------------------------|
D-----------------------------------------------------------------|
A---------5-5-5-5---------5-5-5-5---------5-5-5-5-7-7-7-7-7-7-7-7-|
E-5-5-5-5---------5-5-5-5---------5-5-5-5-------------------------|

Chorus
G-----------------------------------------------------------------|
D-----------------------------------------------------------------|
A---------7-7-7-7---------5-5-5-5---------7-7-7-7-5-5-5-5-7-7-7-7-|
E-5-5-5-5---------5-5-5-5---------5-5-5-5-------------------------|

Solo
G---------------------------------|---------------------------------|
D---------------------------------|---------------------------------|
A-0-0-0-0---------0-0-0-0---------|-0-0-0-0---------0-0-0-0---------|
E---------2-2-2-2---------0-0-0-0-|---------2-2-2-2---------0-0-0-0-|

G---------------------------------|---------------------------------|
D---------------------------------|---------------------------------|
A-0-0-0-0---------0-0-0-0---------|-0-0-0-0---------0-0-0-0---------|
E---------2-2-2-2---------0-0-0-0-|---------2-2-2-2---------0-0-0-0-|

Pre-Chorus
G-----------------------------------------------------------------|
D-----------------------------------------------------------------|
A---------5-5-5-5---------5-5-5-5---------5-5-5-5-7-7-7-7-7-7-7-7-|
E-5-5-5-5---------5-5-5-5---------5-5-5-5-------------------------|

Chorus
G-----------------------------------------------------------------|
D-----------------------------------------------------------------|
A---------7-7-7-7---------5-5-5-5---------7-7-7-7-5-5-5-5-7-7-7-7-|
E-5-5-5-5---------5-5-5-5---------5-5-5-5-------------------------|

G-----------------------------------------------------------------|
D-----------------------------------------------------------------|
A---------7-7-7-7---------5-5-5-5---------7-7-7-7-5-5-5-5-7-7-7-7-|
E-5-5-5-5---------5-5-5-5---------5-5-5-5-------------------------|

Ending (...You, you, you, you, you!"
G------------------------------------------|
D------------------------------------------|
A-7--7--7--7-------------------------------|
E---------------5--------------------------|
Suggest correction
Give kudos to tab author, rate the tab!
1 2 3 4 5
comments
print report bad tab
guest
You may want to rate the tab now too:
select rating
Wanna post a correction for this tab? Suggest correction