Oops, an error
Loading. Please wait.

This Aint Hollywood Bass Tab

200 views 1 this week
no commentswrite comment
1 2 3 4 5
please rate
add to favorites
launch autoscroll
font size
0
reset
guitar tuner
Autoscroll
slow
fast
+/-
esc
set tempo
stop
Help us to improve Ultimate-Guitar.com Take our survey!
×
Author
Intro
G---------------------------------|
D---------------------------------|
A---------------------------------|
E-5-5-5-5-5-5-5-5-5-5-5-5-5-5-5-5-|

Verse                           
G---------------------------------|---------------------------------|
D---------------------------------|---------------------------------|
A-5-5-5-5-5-5-5-5-5-5-5-5-5-5-5-5-|---------------------------------|
E---------------------------------|-5-5-5-5-5-5-5-5-5-5-5-5-5-5-5-5-|

G---------------------------------|---------------------------------|
D---------------------------------|---------------------------------|
A-5-5-5-5-5-5-5-5-5-5-5-5-5-5-5-5-|-7-7-7-7-7-7-7-7-7-7-7-55-44-22--|
E---------------------------------|---------------------------------|

G---------------------------------|---------------------------------|
D---------------------------------|---------------------------------|
A---------------------------------|-5-5-5-5-5-5-5-5-5-5-5-5-5-5-5-5-|
E-5-5-5-5-5-5-5-5-5-5-5-5-5-5-5-5-|---------------------------------|

G---------------------------------|---------------------------------|
D---------------------------------|---------------------------------|
A---------------------------------|-5-5-5-5-5-5-5-5-5-5-5-5-5-5-5-5-|
E-5-5-5-5-5-5-5-5-5-5-5-5-5-5-5-5-|---------------------------------|

Chorus          x3
G-----------------|---------------------------------|
D-------------7-5-|---------------------------------|
A-7-7-7-7-5-5-----|---------------------------------|
E-----------------|-5-5-5-5-5-5-5-5-5-5-5-5-5-5-5-5-|

Verse 2                          
G---------------------------------|---------------------------------|
D---------------------------------|---------------------------------|
A-5-5-5-5-5-5-5-5-5-5-5-5-5-5-5-5-|---------------------------------|
E---------------------------------|-5-5-5-5-5-5-5-5-5-5-5-5-5-5-5-5-|

G---------------------------------|---------------------------------|
D---------------------------------|---------------------------------|
A-5-5-5-5-5-5-5-5-5-5-5-5-5-5-5-5-|-7-7-7-7-7-7-7-7-7-7-7-55-44-22--|
E---------------------------------|---------------------------------|

G---------------------------------|---------------------------------|
D---------------------------------|---------------------------------|
A---------------------------------|-5-5-5-5-5-5-5-5-5-5-5-5-5-5-5-5-|
E-5-5-5-5-5-5-5-5-5-5-5-5-5-5-5-5-|---------------------------------|

G---------------------------------|---------------------------------|
D---------------------------------|---------------------------------|
A---------------------------------|-5-5-5-5-5-5-5-5-5-5-5-5-5-5-5-5-|
E-5-5-5-5-5-5-5-5-5-5-5-5-5-5-5-5-|---------------------------------|

Chorus          x3
G-----------------|---------------------------------|
D-------------7-5-|---------------------------------|
A-7-7-7-7-5-5-----|---------------------------------|
E-----------------|-5-5-5-5-5-5-5-5-5-5-5-5-5-5-5-5-|

Solo
G---------------------------------|---------------------------------|
D---------------------------------|---------------------------------|
A-5-5-5-5-5-5-5-5-5-5-5-5-5-5-5-5-|---------------------------------|
E---------------------------------|-5-5-5-5-5-5-5-5-5-5-5-5-5-5-5-5-|

G---------------------------------|---------------------------------|
D---------------------------------|---------------------------------|
A-5-5-5-5-5-5-5-5-5-5-5-5-5-5-5-5-|-7-7-7-7-7-7-7-7-7-7-7-55-44-22--|
E---------------------------------|---------------------------------|

G---------------------------------|---------------------------------|
D---------------------------------|---------------------------------|
A---------------------------------|-5-5-5-5-5-5-5-5-5-5-5-5-5-5-5-5-|
E-5-5-5-5-5-5-5-5-5-5-5-5-5-5-5-5-|---------------------------------|

G---------------------------------|---------------------------------|
D---------------------------------|---------------------------------|
A---------------------------------|-5-5-5-5-5-5-5-5-5-5-5-5-5-5-5-5-|
E-5-5-5-5-5-5-5-5-5-5-5-5-5-5-5-5-|---------------------------------|

                x3
G-----------------|---------------------------------|
D-------------7-5-|---------------------------------|
A-7-7-7-7-5-5-----|---------------------------------|
E-----------------|-5-5-5-5-5-5-5-5-5-5-5-5-5-5-5-5-|

Final Verse
G---------------------------------|---------------------------------|
D---------------------------------|---------------------------------|
A-5-5-5-5-5-5-5-5-5-5-5-5-5-5-5-5-|---------------------------------|
E---------------------------------|-5-5-5-5-5-5-5-5-5-5-5-5-5-5-5-5-|

G---------------------------------|---------------------------------|
D---------------------------------|---------------------------------|
A-5-5-5-5-5-5-5-5-5-5-5-5-5-5-5-5-|-7-7-7-7-7-7-7-7-7-7-7-55-44-22--|
E---------------------------------|---------------------------------|

G---------------------------------|---------------------------------|
D---------------------------------|---------------------------------|
A---------------------------------|-5-5-5-5-5-5-5-5-5-5-5-5-5-5-5-5-|
E-5-5-5-5-5-5-5-5-5-5-5-5-5-5-5-5-|---------------------------------|

G---------------------------------|---------------------------------|
D---------------------------------|---------------------------------|
A---------------------------------|-5-5-5-5-5-5-5-5-5-5-5-5-5-5-5-5-|
E-5-5-5-5-5-5-5-5-5-5-5-5-5-5-5-5-|---------------------------------|

Chorus          x3
G-----------------|---------------------------------|
D-------------7-5-|---------------------------------|
A-7-7-7-7-5-5-----|---------------------------------|
E-----------------|-5-5-5-5-5-5-5-5-5-5-5-5-5-5-5-5-|

Chorus          x3
G-----------------|---------------------------------|
D-------------7-5-|---------------------------------|
A-7-7-7-7-5-5-----|---------------------------------|
E-----------------|-5-5-5-5-5-5-5-5-5-5-5-5-5-5-5-5-|

Outro                               x2
G-------------------------------------|-------------|
D-------------------------------------|-------------|
A----------5-----------------7--------|-------------|
E-5-----------------5-----------------|-5-----------|
Suggest correction
What's this?
You can suggest a correction to this tab. Community and Mods will review your correction and vote to approve or reject it.
comments
We did not receive enough feedback on this tab! Please rate:
print report bad tab
1 2 3 4 5
guest
You may want to rate the tab now too:
select rating
Please do not post tabs as comments. Select "correction" instead!