Oops, an error
Loading. Please wait.

Entombed By Winter tab

649 views 6 this week
no commentswrite comment
1 2 3 4 5
2 more votes to show rating
add to favorites
×
Save as Personal and add changes to this tab that will be seen only by you. Learn more ›
×
You can save this tab as Personal to edit and correct it or add notes. All changes will be seen only by you. Learn more »
launch autoscroll
font size
0
reset
how to read this tab
guitar tuner
edit
Autoscroll
slow
fast
+/-
esc
set tempo
stop
Band: Forgotten Tomb
Song: Entombed By Winter
Album: Songs To Leave
Tuning: B standard

Structure at the bottom

^=artificial harmonic

Intro
   1  +  2  +  3  +  4  +  5  +  6  +   1  +  2  +  3  +  4  +  5  +  6  +
B ------------------------------------|------------------------------------|
Gb------------------------------------|----------0-----------------0-------|
D -------0-----0-----------0-----0----|-------5-----5--2--------5----------|
A ----2-----2-----2-----2-----2----2--|----2-----------------2-------------|
E ------------------------------------|-0-----------------0----------------| x6
B -0-----------------0----------------|------------------------------------|

   1  +  2  +  3  +  4  +  5  +  6  +
B ------------------------------------|
Gb------------------------------------|
D -------0--3--0-----------0--3--0----|
A ----3-----------3-----2-----------2-|
E -1-----------------0----------------|
B ------------------------------------| x3

   1  +  2  +  3  +  4  +  5  +  6  +
B ------------------------------------|
Gb------------------------------------|
D -------0--3--0----------------------|
A ----3-----------3-------------------|
E -1--------------------5--4-----5--4-|
B -------------------3--------2-------|


Part A
   1   +   2   +   3   +   4   +    1   +   2   +   3   +   4   +
B --------------------------------|--------------------------------|
Gb--------------------------------|--------------------------------|
D -----------------0--------------|-----------------0--------------|
A -----------------0--------------|-----------------0--------------|
E -2------------------------------|-4------------------------------|
B -0------------------------------|-2------------------------------|

   1   +   2   +   3   +   4   +    1   +   2   +   3   +   4   +
B --------------------------------|--------------------------------|
Gb--------------------------------|--------------------------------|
D -----------------0--------------|-----------------0-------0------|
A -----------------0--------------|-----------------0-------0------|
E -2------------------------------|-4---------------------------3--|
B -0------------------------------|-2---------------------------1--|

   1   +   2   +   3   +   4   +    1   +   2   +   3   +   4   +
B --------------------------------|--------------------------------|
Gb--------------------------------|--------------------------------|
D -----------------0--------------|-----------------0--------------|
A -----------------0--------------|-----------------0--------------|
E -2------------------------------|-4------------------------------|
B -0------------------------------|-2------------------------------|

   1   +   2   +   3   +   4   +    1   +   2   +   3   +   4   +
B --------------------------------|--------------------------------|
Gb--------------------------------|--------------------------------|
D -----------------0--------------|--------------------------------|
A -----------------0--------------|--------------------------------|
E -2------------------------------|-4---------------3--------------|
B -0------------------------------|-2---------------1--------------|


Part A1 (this is the overdubbed clean guitar)
   1   +   2   +   3   +   4   +    1   +   2   +   3   +   4   +
B --------------------------------|--------------------------------|
Gb--------------------------------|--------------------------------|
D -----------------0--------------|-----------------0--------------|
A --------------------------------|--------------------------------|
E ---------7----------------------|---------4----------------------|
B -0------------------------------|-2------------------------------|

   1   +   2   +   3   +   4   +    1   +   2   +   3   +   4   +
B --------------------------------|--------------------------------|
Gb--------------------------------|--------------------------------|
D -----------------0--------------|---------0---------------0------|
A --------------------------------|---------4---------------3------|
E ---------7----------------------|--------------------------------|
B -0------------------------------|-2---------------1--------------|


Part B
   1  +  2  +  3  +  4  +  5  +  6  +   1  +  2  +  3  +  4  +  5  +  6  +
B ------------------------------------|-------0-----0----------------------|
Gb-------0-----0-----------0-----0----|----------0-----0--------0-----0----|
D ----------2-----2-----------2-----2-|----------------------------2-----2-|
A ------------------------------------|------------------------------------|
E -0-----------------0----------------|-3-----------------2----------------|
B ------------------------------------|------------------------------------|

   1  +  2  +  3  +  4  +  5  +  6  +   1  +  2  +  3  +  4  +  5  +  6  +
B ------------------------------------|-------0-----0-----------0-----0----|
Gb-------0-----0-----------0-----0----|----------0-----0-----------0-----0-|
D ----------2-----2-----------2-----2-|------------------------------------|
A ------------------------------------|------------------------------------|
E -0-----------------0----------------|-3-----------------5----------------|
B ------------------------------------|------------------------------------|


Part C
   1  +  2  +  3  +  4  +  5  +  6  +   1  +  2  +  3  +  4  +  5  +  6  +
B ------------------------------------|------------------------------------|
Gb------------------------------------|------------------------------------|
D ------------------------------------|------------------------------------|
A ------------------------------------|------------------------------------|
E -4--4--4--4--4--4--4--4--4--4--4--4-|-6--6--6--6--6--6--3--3--3--3--3--3-|
B -2--2--2--2--2--2--2--2--2--2--2--2-|-4--4--4--4--4--4--1--1--1--1--1--1-| x4

   1  +  2  +  3  +  4  +  5  +  6  +   1  +  2  +  3  +  4  +  5  +  6  +
B ------------------------------------|------------------------------------|
Gb------------------------------------|------------------------------------|
D ------------------------------------|------------------------------------|
A ----------------------------5-------|------------------------------------|
E -2-----2-----------2-----2-----5--5-|-5--5--5--5--5--5--4--4--4--8--8--8-|
B -0-----0--3--3--3--0-----0----------|-3--3--3--3--3--3--2--2--2--6--6--6-|
            ^  ^  ^           ^  ^  ^

   1  +  2  +  3  +  4  +  5  +  6  +   1  +  2  +  3  +  4  +  5  +  6  +
B ------------------------------------|------------------------------------|
Gb------------------------------------|------------------------------------|
D ------------------------------------|------------------------------------|
A ------------------------------------|------------------------------------|
E -2-----2-----------2-----2----------|-4--4--4--4--4--4--6--6--6--4--4--4-|
B -0-----0--3--3--3--0-----0--3--3--3-|-2--2--2--2--2--2--4--4--4--2--2--2-|
            ^  ^  ^           ^  ^  ^

   1  +  2  +  3  +  4  +  5  +  6  +   1  +  2  +  3  +  4  +  5  +  6  +
B ------------------------------------|------------------------------------|
Gb------------------------------------|------------------------------------|
D ----------0-----0-----------0-----0-|------------------------------------|
A -------------4-----------------4----|------------------------------------|
E -2-----2-----------2-----2----------|-5--5--5--5--5--5--4--4--4--8--8--8-|
B -0-----0-----------0-----0----------|-3--3--3--3--3--3--2--2--2--6--6--6-|

   1  +  2  +  3  +  4  +  5  +  6  +   1  +  2  +  3  +  4  +  5  +  6  +
B ------------------------------------|------------------------------------|
Gb------------------------------------|------------------------------------|
D ----------0-----0-----------0-----0-|------------------------------------|
A -------------4-----------------4----|------------------------------------|
E -2-----2-----------2-----2----------|-4--4--4--4--4--4--6--6--6--4--4--4-|
B -0-----0-----------0-----0----------|-2--2--2--2--2--2--4--4--4--2--2--2-|


Part C1 (this is the overdubbed clean guitar)
   1  +  2  +  3  +  4  +  5  +  6  +   1  +  2  +  3  +  4  +  5  +  6  +
B ------------------------------------|------------------------------------|
Gb------------------------------------|------------------------------------|
D ----------0-----------------0-------|----------0-----------------0-------|
A ----------4-----------------4-------|----------5-----------------3-------|
E ----4-----------------4-------------|----6-----------------3-------------|
B -2-----2-----------2-----2----------|-4-----4-----------1-----1----------| x2


Part D
   1   +   2   +   3   +   4   +    1   +   2   +   3   +   4   +
B --------------------------------|--------------------------------|
Gb---------4---------------4------|---------3---------------3------|
D -----5-------5-------5-------5--|-----4-------4-------4-------2--|
A -3---------------3--------------|-2---------------2--------------|
E --------------------------------|--------------------------------| x4
B --------------------------------|--------------------------------|

   1   +   2   +   3   +   4   +    1   +   2   +   3   +   4   +
B --------------------------------|--------------------------------|
Gb-------------0------------------|-------------0------------------|
D ---------5-------5--------------|---------5-------5--------------|
A -----7---------------7-------7--|-----5---------------5-------5--|
E -5-----------------------5------|-3-----------------------3------| x3
B --------------------------------|--------------------------------|

   1   +   2   +   3   +   4   +    1   +   2   +   3   +   4   +
B --------------------------------|--------------------------------|
Gb-------------0------------------|--------------------------------|
D ---------5-------5--------------|---------5----------------------|
A -----7---------------7-------7--|-----5--------------------------|
E -5-----------------------5------|-3------------------------------|x1
B --------------------------------|--------------------------------|


Part E
   1   +   2   +   3   +   4   +    1   +   2   +   3   +   4   +
B --------------------------------|--------------------------------|
Gb--------------------------------|--------------------------------|
D ---------4---------------4------|---------4---------------4------|
A -----5-------5-------5-------5--|-----4-------4-------4-------4--|
E -3---------------3--------------|-2---------------2--------------| x4
B --------------------------------|--------------------------------|

   1   +   2   +   3   +   4   +    1   +   2   +   3   +   4   +
B --------------------------------|--------------------------------|
Gb-------------0------------------|-------------0------------------|
D ---------5-------5--------------|---------5-------5--------------|
A -----7---------------7-------7--|-----5---------------5-------5--|
E -5-----------------------5------|-3-----------------------3------| x4
B --------------------------------|--------------------------------|

   1   +   2   +   3   +   4   +    1   +   2   +   3   +   4   +
B --------------------------------|--------------------------------|
Gb-------------0------------------|-------------0------------------|
D ---------4---------------4------|---------4---------------4------|
A -----5-----------------------5--|-----4-----------------------4--|
E -3-------------------3----------|-2-------------------2----------| x4
B --------------------------------|--------------------------------|

   1   +   2   +   3   +   4   +    1   +   2   +   3   +   4   +
B --------------------------------|--------------------------------|
Gb--------------------------------|--------------------------------|
D ---------2---3---2-------2------|---------2---3---2-------2------|
A -----3---------------3-------3--|-----2---------------2-------3--|
E -1------------------------------|-0------------------------------| x4
B --------------------------------|--------------------------------|


Part F
   1   +   2   +   3   +   4   +    1   +   2   +   3   +   4   +
B --------------------------------|--------------------------------|
Gb--------------------------------|--------------------------------|
D --------------------------------|--------------------------------|
A --------------------------------|--------------------------------|
E -2------------------------------|-4---------------5--------------|
B -0------------------------------|-2---------------3--------------| x4

   1   +   2   +   3   +   4   +    1   +   2   +   3   +   4   +
B --------------------------------|--------------------------------|
Gb--------------------------------|--------------------------------|
D --------------------------------|--------------------------------|
A --------------------------------|--------------------------------|
E -2---2---2---2---2---2---2---2--|-4---4---4---4---5---5---5---5--|
B -0---0---0---0---0---0---0---0--|-2---2---2---2---3---3---3---3--| x4


End
   1  +  2  +  3  +  4  +  5  +  6  +
B ------------------------------------|
Gb------------------------------------|
D ------------------------------------|
A ------------------------------------|
E -2----------------------------------|
B -0----------------------------------|


Structure

Intro       0:00-1:24
Part A x7   1:24-4:35
Part B x2   4:35-5:16
Part C      5:16-6:38
Part A x1   6:38-7:05
Part D      7:05-7:42
Part E      7:42-8:45
Part F      8:45-9:18
Part A x1   9:18-9:49
Intro       9:49-10:52
End         10:52

Part A1 is overdubbed at 1:50-2:18, 3:13-3:41, 6:38-7:05 and 9:18-9:49
Part C1 is overdubbed at 5:36-5:57

            
            
Suggest correction
Creating personal tab
Creating personal tab
You can edit any tab online and save it as your Personal.

You can edit, replace or remove any tab part or add personal notes – all changes will be seen only by you.

Personal tabs can be accessed anytime from any device, even offline.
Learn more »
Give kudos to tab author, rate the tab!
1 2 3 4 5
comments
print report bad tab
guest
You may want to rate the tab now too:
select rating
Wanna post a correction for this tab? Suggest correction