Oops, an error
Loading. Please wait.

First Single Bass Tab

1,660 views 3 this week
no commentswrite comment
1 2 3 4 5
please rate
add to favorites
launch autoscroll
font size
0
reset
guitar tuner
Autoscroll
slow
fast
+/-
esc
set tempo
stop
Help us to improve Ultimate-Guitar.com Take our survey!
×
Difficulty
novice
Song: The First Single
Artist: The Format
Album: Interventions & Lullabies
Tuning: Standard
Tabbed by: Dingle

This is just a rough guide to follow to get you started.
Listen to the song to figure out the rythm.


INTRO - Bass joins after guitar intro.
G|-----------------|
D|-----------------|
A|-----------------|
E|-----000000------|

VERSE x2

G|---------------------------------------------|
D|---------------------------------------------|
A|--44-444-444-444-4---------------------------|
E|--------------------5-5-5-5-----0-0-0-0------|


X3
G|-------------------------|
D|-------------------------|
A|--44-444-----------------|
E|-----------5-5-0-0-0-----|


FINAL LINE OF VERSE
G|-------------------------------------------|
D|-------------------------------------------|
A|--444444444--22222222----------------------|
E|-----------------------5555555555555555----|


CHORUS X2
G|-------------------------------------------------|
D|-------------------------------------------------|
A|-------------22222222------------4444--2222------|
E|--00000000-------------55555555------------------|



VERSE x3
G|---------------------------------------------|
D|---------------------------------------------|
A|--44-444-444-444-4---------------------------|
E|--------------------5-5-5-5-----0-0-0-0------|


X3
G|-------------------------|
D|-------------------------|
A|--44-444-----------------|
E|-----------5-5-0-0-0-----|


FINAL LINE OF VERSE
G|-------------------------------------------|
D|-------------------------------------------|
A|--444444444--22222222----------------------|
E|-----------------------5555555555555555----|


CHORUS X2
G|-------------------------------------------------|
D|-------------------------------------------------|
A|-------------22222222------------4444--2222------|
E|--00000000-------------55555555------------------|


BRIDGE
G|----------------------------------------------------------------------|
D|----------------------------------------------------------------------|
A|---------------------2---------------------------2--------------------|
E|--5555555---0------------------5--------0----------------5---------0--|


G|-----------------------------------------------------------------------|
D|-----------------------------------------------------------------------|
A|---4-----------------------4------2------------------22-222-222-222-2--|
E|-----------5-------0--------------------5------0-----------------------|


CHORUS X4
G|-------------------------------------------------|
D|-------------------------------------------------|
A|-------------22222222------------4444--2222------|
E|--00000000-------------55555555------------------|


OUTRO
G|-------------------------------------------------|
D|-------------------------------------------------|
A|---44444444----22222222--------------------------|
E|-------------------------5555555555555555---0----|

Suggest correction
Give kudos to tab author, rate the tab!
1 2 3 4 5
comments
print report bad tab
guest
You may want to rate the tab now too:
select rating
Wanna post a correction for this tab? Suggest correction