Oops, an error
Loading. Please wait.

If Work Permits Tab

version 1
version 1

Whole song

11,836 views 6 this week
1 commentread comment
1 2 3 4 5
excellent!
x 9
add to favorites
launch autoscroll
font size
0
reset
how to read this tab
guitar tuner
Autoscroll
slow
fast
+/-
esc
set tempo
stop
Help us to improve Ultimate-Guitar.com Take our survey!
×
Author
---------------------------------------|
---0-----------------5--7p5------------|
---1----1-------------6----6-----------|
--------2repeat-----7--7----7----------|
-----0h2-------------------------------|
--0------------------------------------|

Then its the opposite
------------------------------------|
---5--7p5---------------0-----------|
----6----6--------------1----1------|
-----7----7-repeat-----------2------|
--0--------0--------------0h2-------|
-----------------------0------------|

then this is when he sings "and all the things you have, they arent the same"
------------------------2-------------|
---0-------5~-----------0-------------|
---1---1---6~-----------2-------------|
-------2---7~-----------1-------------|
----0h2----0~----4/2-0--2-------------|
--0-----------------------------------|

then this is when he sings " send me back to you oooooooo"
---------------------------------------|
--2--4--4--5--7------------------------|
--1--4--4--6--8------------------------|
--2--2---------------------------------|
--2--2---------------------------------|
-----2---------------------------------|

Chorus
-----------------2~------------------------|
--0~---5~--------2~---5~-------------------|
--1~---6~--------2~---6~-------------------|
--2~---7~repeat--4~---7~-------------------|
--2~---0~--------4~---0~-------------------|
--0~-------------2~------------------------|

Fast Part
--------------------------------------|
--------------------------------------|
--9--6--------------------------------|
--9--7repeat--7-9-11------------------|
--7--7--------7-9-11------------------|
-----5--------5-7-9-------------------|

"so now your scared of love"
---------------------------------------------|
---------------------------------------------|
------------6666----------9------------------|
--11--9--6--7777----------9Strum alot--------|
--11--9--6--7777Repeat----7------------------|
--9---7--4--5555-----------------------------|

"and if she seems as lonely as me"
---2---0---0--0---2--0-------------------------|
---2---5---0--5---2--5-------------------------|
---2---6---1--6---2--6-----9----9--------------|
---4---7---2--7---4--7-----9-7--9-7-9-11-------|
---4---0---2--0---4--0-----7-7--7-7-9-11-------|
---2-------0------2----------5----5-7-9--------|

I think you can get the rest from there. any Questions?
Suggest correction
What's this?
You can suggest a correction to this tab. Community and Mods will review your correction and vote to approve or reject it.
comments
print report bad tab
1 comment total.
0 reply
pettit 31 wrote on July 16 2015, 07:59 pm

i feel like there is a transition between the 2 parts of the verse that is missing...

guest
You may want to rate the tab now too:
select rating
Please do not post tabs as comments. Select "correction" instead!