Oops, an error
Loading. Please wait.

Lets Make This Moment A Crime Tab

7,543 views 9 this week
2 commentsread comments
1 2 3 4 5
1 last vote to show rating
add to favorites
launch autoscroll
font size
0
reset
how to read this tab
guitar tuner
Autoscroll
slow
fast
+/-
esc
set tempo
stop
Help us to improve Ultimate-Guitar.com Take our survey!
×
----------------------------------------------------------------------------
                             Let's Make This Moment A Crime- Format
----------------------------------------------------------------------------
Tabbed by:Brad Smith
Email:Newfoundsoco@hotmail.com

Tuning:Standard

It's all here- you can figure out the rhythms and such...its not hard really

Intro:

Guitar 1
   (hold D)
e|-0/2---4\3---------------------------------------------------------------|
B|-----3------3------------------------------------------------------------|
G|------2-------2----------------------------------------------------------|
D|-------------------------------------------------------------------------|
A|-------------------------------------------------------------------------|
E|-------------------------------------------------------------------------|

Guitar 2
    G            D 
e|-33333333333--222222222222222--------------------------------------------|
B|-33333333333--333333333333333--------------------------------------------|
G|-00000000000--222222222222222--------------------------------------------|
D|-00000000000-------------------------------------------------------------|
A|-22222222222-------------------------------------------------------------|
E|-33333333333--------------------------------------------------------------


Verse 1:
   G           D          A         Bm
e|-33333333--222222222--00000000--000000000--------------------------------|
B|-33333333--333333333--22222222--333333333--------------------------------|
G|-00000000--222222222--22222222--444444444--------------------------------|
D|-00000000--000000000--22222222--444444444--------------------------------|
A|-22222222--000000000--00000000--000000000--------------------------------|
E|-33333333--000000000--00000000--000000000--------------------------------|

    G         D           A
e|-33333333--222222222--0000000000000000000--------------------------------|
B|-33333333--333333333--2222222222222222222--------------------------------|
G|-00000000--222222222--2222222222222222222--------------------------------|
D|-00000000--000000000--2222222222222222222--------------------------------|
A|-22222222--000000000--0000000000000000000--------------------------------|
E|-33333333--000000000--0000000000000000000--------------------------------|

Play 2x

Pre-Chorus:
"Maybe it's just too late..."
   G           A         
e|-33333333--00000000------------------------------------------------------|
B|-33333333--22222222------------------------------------------------------|
G|-00000000--22222222------------------------------------------------------|
D|-00000000--22222222------------------------------------------------------|
A|-22222222--00000000------------------------------------------------------|
E|-33333333--00000000------------------------------------------------------|


Chorus:
"On and on..."

    D           G           
e|-222222222--3333333333--------------------------------|
B|-333333333--3333333333--------------------------------|
G|-222222222--0000000000--------------------------------|
D|-000000000--0000000000--------------------------------|
A|-000000000--2222222222--------------------------------|
E|-000000000--3333333333--------------------------------|

Bridge

     D              Bm
e|---22222222----000000000-------------------------------|
B|---33333333----333333333-------------------------------|
G|---22222222----444444444-------------------------------|
D|---00000000----444444444-------------------------------|
A|---00000000----000000000-------------------------------|
E|---00000000----000000000-------------------------------|


God Bless!

============================================================================
Suggest correction
Give kudos to tab author, rate the tab!
1 2 3 4 5
comments
print report bad tab
2 comments total.
+2 reply
EdMcMan 41 Jul 18, 2004 12:00 AM

e|-0h2---3p2---------------------------------------------------------------|
B|-----3------3------------------------------------------------------------|
G|------2-------2----------------------------------------------------------|
D|-------------------------------------------------------------------------|
A|-------------------------------------------------------------------------|
E|-------------------------------------------------------------------------|

+1 reply
shanus 10 Mar 27, 2007 05:16 PM

It's more than just G and A in the pre chorus bro.


G A
Maybe its just too late
Bm E
Everything feels the same
G A
Tell me its not too late


and the Bm sounds a lot better with the lower root added

e|-0
B|-3
G|-4
D|-4
A|-2
E|-x

guest
You may want to rate the tab now too:
select rating
Wanna post a correction for this tab? Suggest correction