Oops, an error
Loading. Please wait.

Youre Not A Whore tab

by Format
46 views 3 this week
no commentswrite comment
1 2 3 4 5
3 more votes to show rating
add to favorites
×
Save as Personal and add changes to this tab that will be seen only by you. Learn more ›
×
You can save this tab as Personal to edit and correct it or add notes. All changes will be seen only by you. Learn more »
launch autoscroll
font size
0
reset
how to read this tab
guitar tuner
edit
Autoscroll
slow
fast
+/-
esc
set tempo
stop
Author
Difficulty
[Intro]

e|---x------x----x-x---x-x-x--|-----------------------------------|--------------------------|
B|---x------x----x-x---x-x-x--|------4--------4-------4--------4--|------0--------0----4-----|
G|---x------x----x-x---x-x-x--|------4--------4-------4--------4--|------1--------1----4-----|
D|---x------x----x-x---x-x-x--|------4--------4-------4--------4--|------2--------2----4-----|
A|---x------x----x-x---x-x-x--|---2----------------2--------------|------------2-------2-----|
E|---x------x----x-x---x-x-x--|-----------2----------------2------|--0-----------------------|


[Verse 1]

e|----------------------------|-------------------------|------------------------|-------------------------|
B|----4------4------4------4--|----0-----0-----0-----0--|-----2-----2----2-----2-|----4------4-----4-----4-|
G|----4------4------4------4--|----1-----1-----1-----1--|-----3-----3----3-----3-|----4------4-----4-----4-|x2
D|----4------4------4------4--|----2-----2-----2-----2--|-----4-----4----4-----4-|----4------4-----4-----4-|
A|-2-------------2------------|-------2-----------2-----|--------4----------4----|-2------------2----------|
E|--------2-------------2-----|-0-----------0-----------|--2-----------2---------|--------2-----------2----|


[Chorus]

*Strum first E chord from high E to low E, let it ring*

e|-0---------|--2----2--|-----------------------------|
B|-0---------|--2----2--|-----4-----4------4-----4----|
G|-1---------|--3----3--|-----4-----4------4-----4----|
D|-2---------|--4----2--|-----4-----4------4-----4----|
A|-2---------|--4----4--|--2------------2-------------|
E|-0---------|--2----2--|--------2------------2-------|
   
e|------------------------|--2----2--|--------------------|
B|----0-----0----0-----0--|--2----2--|------4-----4-----4-|
G|----1-----1----1-----1--|--3----3--|------4-----4-----4-|
D|----2-----2----2-----2--|--4----2--|------4-----4-----4-|
A|-------2----------2-----|--4----4--|---2-----------2----|
E|-0-----------0----------|--2----2--|---------2----------|


[Verse 2]

e|----------------------------|-------------------------|------------------------|-------------------------|
B|----4------4------4------4--|----0-----0-----0-----0--|-----2-----2----2-----2-|-4--4---4--4--4--4--4--4-|
G|----4------4------4------4--|----1-----1-----1-----1--|-----3-----3----3-----3-|-4--4---4--4--4--4--4--4-|
D|----4------4------4------4--|----2-----2-----2-----2--|-----4-----4----4-----4-|-4--4---4--4--4--4--4--4-|
A|-2-------------2------------|-------2-----------2-----|--------4----------4----|-2--2---------2--2-------|
E|--------2-------------2-----|-0-----------0-----------|--2-----------2---------|--------2--2--------2--2-|
                                                                         *Let B Chord ring*
e|----------------------------|-------------------------|------------------------|-2-----|
B|----4------4------4------4--|----0-----0-----0-----0--|-----2-----2----2-----2-|-4-----|
G|----4------4------4------4--|----1-----1-----1-----1--|-----3-----3----3-----3-|-4-----|
D|----4------4------4------4--|----2-----2-----2-----2--|-----4-----4----4-----4-|-4-----|
A|-2-------------2------------|-------2-----------2-----|--------4----------4----|-2-----|
E|--------2-------------2-----|-0-----------0-----------|--2-----------2---------|-------|


[Solo]

*Play Verse 1 behind the solo*

e|-----------|--------------------------------------|--------------------------|
B|-----------|--------------------------------------|--------------------------|
G|-----------|--------------------------------------|--------------------------|
D|---------8-|-8/9--9--9----9--9--9---11p9--11p9--9-|------9------9------9-----|
A|--9--11----|--------------------------------------|-9h11---9h11---9h11-9h11--|
E|-----------|--------------------------------------|--------------------------|

e|-----------------------------------|-----------------------|------------------------------|
B|-----------------------------------|-----------------------|------------------------------|
G|---------------------3-3-----------|----------------4---2~-|------------------------------|
D|--------------------------6b7r6--4-|-----4-----4-----------|-4~--4~--4h6--6--4------------|
A|----------4--4h6-------------------|-4h6---4h6-------------|--------------------6p4-------|
E|-2---4h6---------------------------|-----------------------|--------------------------7---|

e|------------------|------------------------|----------------------|-------------------|
B|------4---------5-|-5s7---------7-------7--|---7----7--7----------|-------------------|
G|------4-------4---|-------------6-------6--|---6h8--8--6----------|-----------4---2\--|
D|-4/6-----4/6~-----|-6s8----6h8------6h8----|--------------8p6--4--|-------4-----------|
A|------------------|------------------------|----------------------|--4/6--------------|
E|------------------|------------------------|----------------------|-------------------|


[Bridge]

*Play once, then let chords ring*
e|------2------|--0------|--2-----|---|--------2----|-0----|-2--------|----|
B|------2------|--0------|--2-----|---|--------2----|-0----|-2--------|----|
G|------2------|--1------|--3-----|---|--------2----|-1----|-3--------|----|
D|------4------|--2------|--4-----|---|--------4----|-2----|-4--------|----|
A|------4------|--2------|--4-----|---|--------4----|-2----|-4--------|----|
E|------2------|--0------|--2-----|---|--------2----|-0----|-2--------|----|

e|-4-4-4---4-4-4---4-4-4---4-4-4--|-0-0-0---0-0-0---0-0-0---0-0-0----|
B|-4-4-4---4-4-4---4-4-4---4-4-4--|-0-0-0---0-0-0---0-0-0---0-0-0----|
G|-4-4-4---4-4-4---4-4-4---4-4-4--|-1-1-1---1-1-1---1-1-1---1-1-1----|
D|-6-6-6---6-6-6---6-6-6---6-6-6--|-2-2-2---2-2-2---2-2-2---2-2-2----|
A|-6-6-6---6-6-6---6-6-6---6-6-6--|-2-2-2---2-2-2---2-2-2---2-2-2----|
E|-4-4-4---4-4-4---4-4-4---4-4-4--|-0-0-0---0-0-0---0-0-0---0-0-0----|

e|-2-2-2---2-2-2---2-2-2---2-2-2--|-2-2-2---2-2-2---2-2-2---2-2-2----|
B|-2-2-2---2-2-2---2-2-2---2-2-2--|-2-2-2---2-2-2---2-2-2---2-2-2----|
G|-3-3-3---3-3-3---3-3-3---3-3-3--|-3-3-3---3-3-3---3-3-3---3-3-3----|
D|-4-4-4---4-4-4---4-4-4---4-4-4--|-2-2-2---2-2-2---2-2-2---2-2-2----|
A|-4-4-4---4-4-4---4-4-4---4-4-4--|-4-4-4---4-4-4---4-4-4---4-4-4----|
E|-2-2-2---2-2-2---2-2-2---2-2-2--|-2-2-2---2-2-2---2-2-2---2-2-2----|


[Final Chorus]

e|-0---------|--2--2--2---|-------------------------|---------------------------|
B|-0---------|--2--2--2---|----4-----4------4-----4-|-----4-----4-----4-----4---|
G|-1---------|--3--3--3---|----4-----4------4-----4-|-----4-----4-----4-----4---|
D|-2---------|--4--4--2---|----4-----4------4-----4-|-----4-----4-----4-----4---|
A|-2---------|--4--4--4---|-2------------2----------|--2-----------2------------|
E|-0---------|--2--2--2---|-------2------------2----|--------2-----------2------|
                                                        *Let B Chord ring*
e|-0--------|---2--2--2-----|--2--2--2-----|--2--2--2-----|---2------|
B|-0--------|---2--2--2-----|--2--2--2-----|--2--2--2-----|---4------|
G|-1--------|---3--3--3-----|--3--3--3-----|--3--3--3-----|---4------|
D|-2--------|---4--4--2-----|--4--2--4-----|--4--2--4-----|---4------|
A|-2--------|---4--4--4-----|--4--4--4-----|--4--4--4-----|---2------|
E|-0--------|---2--2--2-----|--2--2--2-----|--2--2--2-----|----------|


[Outro]

e|---------------|
B|-4--4--4--4----|
G|-4--4--4--4----|  x38
D|-4--4--4--4----|
A|-2--2----------|
E|-------2--2----|

************************************

| x   Dead note
| h   Hammer-on
| p   Pull-off
| r   Release
| b   Bend
| br  Bend release
| /   Slide up
| ~   Vibrato

************************************

*Lyrics & Song Structure*

[Intro]

[Verse 1]
Well you stole my stole my heart
Me, I stole your innocence
Well age just ain't so easy to replace
And you're bitter cause I always win
So how do you make up for it?
Go ahead, sleep with every boy in town

[Chorus]
But you're not a whore, you just don't know who you are
You're not a whore, you just don't know who you are

[Verse 2]
Oh Friday night get ready for the bright lights
When Sunday comes you'll make a good excuse
You know that he's never gonna call you back
But you're young
So what have you got to lose?

[Solo/Verse 1]

[Chorus]
You're not a whore, you just don't know who you are
You're not a whore, you just don't know

[Verse 1]
Well you stole my stole my heart
Me, I stole your innocence
Age just ain't so easy to replace
And you're bitter cause I always win
So how do you make up for it?
Go ahead, sleep with every boy in town

[Bridge]
Well last we talked you were you were slitting your wrists
But I'm still convinced we're gonna get hitched
If only I could learn to to forgive and forget

[Final Chorus]
You're not a whore, you just don't know who you are
You're not a whore, you just don't know
You just don't know, you just don't know who you are

[Outro]
Everybody knows somebody, big deal, big deal (Repeat nine times and fade)



***Good Luck!***

            
            
Suggest correction
Creating personal tab
Creating personal tab
You can edit any tab online and save it as your Personal.

You can edit, replace or remove any tab part or add personal notes – all changes will be seen only by you.

Personal tabs can be accessed anytime from any device, even offline.
Learn more »
Give kudos to tab author, rate the tab!
1 2 3 4 5
comments
print report bad tab
guest
You may want to rate the tab now too:
select rating
Wanna post a correction for this tab? Suggest correction