Oops, an error
Loading. Please wait.

Petrified Bass Tab

version 1
version 1

Whole song

Interactive

613 views 1 this week
no commentswrite comment
1 2 3 4 5
x 3
add to favorites
launch autoscroll
font size
0
reset
guitar tuner
Autoscroll
slow
fast
+/-
esc
set tempo
stop
Help us to improve Ultimate-Guitar.com Take our survey!
×
Song: Petrified
Album: The Rising Tied
Band: Fort Minor
Tabbed By: Masterbasser36


Intro
G|---------|
D|---------|    
A|-2-------|
E|---3-0---|

Chorus
G|-------------------|
D|-------------------|
A|-------------------|        
E|-4-2-1-0-3-5-3-1---|       

Verse I
G|---------------------|
D|---------------------|     
A|---------------------|
E|-4-2-1-0-3-5-3-1-1---|

Verse II
G|---------------------|
D|---------------------|
A|-----------------1---|
E|-4-2-1-0-3-5-3-1-----|

That's it, Please Rate And Enjoy.
Suggest correction
Give kudos to tab author, rate the tab!
1 2 3 4 5
comments
print report bad tab
guest
You may want to rate the tab now too:
select rating
Wanna post a correction for this tab? Suggest correction