Oops, an error
Loading. Please wait.

Remember The Name Tab

version 1
version 1

Intro

Whole song

Interactive

13,099 views 15 this week
1 commentread comment
1 2 3 4 5
excellent!
x 13
add to favorites
launch autoscroll
font size
0
reset
how to read this tab
guitar tuner
Autoscroll
slow
fast
+/-
esc
set tempo
stop
Help us to improve Ultimate-Guitar.com Take our survey!
×
Author
Difficulty
intermediate
e|-------------------------------------------------------------------------------------|
B|----4--------4-----------------------------------------------------------------------|
G|---5-5------5-5-------5--------7-----------------------------------------------------|
D|--5---5----5---5-----6-6------8-8----------------------------------------------------|
A|-3-----3--3-----3---6---6----8---8---------------------------------------------------|
E|-------------------4-----4--6-----6--------------------------------------------------|
   (Cm)     (Cm)       (G#)     (A#)

Listen to the song to figure out when the G# and A# ring out.
Suggest correction
comments
print report bad tab
1 comment total.
+1 reply
Aumi 31 wrote on July 13 2012, 05:43 pm

The G# should be played like this:


e|----------------
B|--------4-------
G|------5---5-----
D|----6-------6---
A|----------------
E|--4------------4

guest
You may want to rate the tab now too:
select rating
Wanna post a correction for this tab? Suggest correction