Oops, an error
Loading. Please wait.

Remember The Name Tab

version 1
version 1

Intro

Whole song

Interactive

41,062 views 45 this week
5 commentsread comments
1 2 3 4 5
accurate
x 13
add to favorites
launch autoscroll
font size
0
reset
how to read this tab
guitar tuner
Tab Pro tools
  • play this tab
  • loop segment
  • change instrument
  • show fretboard
  • metronome
Autoscroll
slow
fast
+/-
esc
set tempo
stop
Contributor
Difficulty
Tuning
intermediate
D A D G B E
Fort Minor - Remeber The Name.
Tuning: Drop D.
e:--------------------------------------------------------------------|}
b:--------4-------------4-----------------4-----------------3---------|}
g:-----5----5---------5---5------------------5------------3---3-------|}
d:---5--------5-----5-------5----------5-------5-------3--------3-----|]
a:-3------------6-3------------6----3------------3-1--------------3-1-|}
D:-------------------------------6------------------------------------|}
Repeat this through the song

I will post the rest of the song when i figure it out.
comments
print report bad tab
5 comments total. Showing first comments.
+1 reply
Thorns93 wrote on January 20 2009, 12:35 am

durring any parts where the strings are playing at higher notes, its the same notes one octave higher, so on a guitar it would be this:

e|------------------------------------------------------------|
B|-------16-------------16------------16-------------15-------|
G|-----17--17---------17--17--------17--17---------15--15-----|
D|---17------17-----17------17----17------17-----15------15---|
A|-15----------18-15----------18------------15-13----------18-|
E|-------------------------------4----------------------------|

it sounds right to me, which this is what i got after i used your tab to figure it out.

+1 reply
Thorns93 wrote on January 20 2009, 12:36 am

sorry, the 4 on the low E string is supposed to be a 16

0 reply
Mrfussytabs wrote on January 9 2010, 11:22 am

i could kiss both the tabber and the above commenter...you guys pwn. to bad i can only leave 5 stars =[[[

I want to post or [tab]
guest
You may want to rate the tab now too:
select rating
Please do not post tabs as comments. Select "correction" instead!