Oops, an error
Loading. Please wait.

Remember The Name Tab

version 3
version 3

Whole song

Interactive

2,054 views 1 this week
no commentswrite comment
1 2 3 4 5
please rate
add to favorites
launch autoscroll
font size
0
reset
how to read this tab
guitar tuner
Autoscroll
slow
fast
+/-
esc
set tempo
stop
Help us to improve Ultimate-Guitar.com Take our survey!
×
Riff 1- minor and major arpegios

E|------------------------------------------------|
B|------------------------------------------------|
G|--------------8---------------------8-----------|
D|-----------10---10---------------10---10--------|
A|--------10---------10---------10---------10-----|
e|---8-11---------------11-8-11---------------11--|

E|------------------------------------------------|
B|------------------------------------------------|
G|-----------5----------------7-------------------|
D|---------6---6------------8---8-----------------|
A|-----3-6-------6-3----5-8-------8-5-------------|
e|---4----------------6---------------------------|

chords are power chords

C - C - G# - A#
Suggest correction
Give kudos to tab author, rate the tab!
1 2 3 4 5
comments
print report bad tab
guest
You may want to rate the tab now too:
select rating
Wanna post a correction for this tab? Suggest correction