Oops, an error
Loading. Please wait.

Slip Out The Back Tab

1,787 views 1 this week
3 commentsread comments
1 2 3 4 5
x 3
add to favorites
launch autoscroll
font size
0
reset
how to read this tab
guitar tuner
Autoscroll
slow
fast
+/-
esc
set tempo
stop
Help us to improve Ultimate-Guitar.com Take our survey!
×
Author
Difficulty
novice
This is my first tab and i think it sounds about right.
This riff goes throughout the entire song.

piano:
e-----14-13-14-15-14-13-14------14-13-14-15-17-15-14-*
B--12------------------------12----------------------*
G----------------------------------------------------*
D----------------------------------------------------*
A----------------------------------------------------*
E----------------------------------------------------*

And thats it. it took me about 10 secconds to figure it out myself so this should be no problem.
Suggest correction
Give kudos to tab author, rate the tab!
1 2 3 4 5
comments
print report bad tab
3 comments total.
+1 reply
LazyLatinoRocke 10 Jun 29, 2008 05:46 PM

completely wrong. It should be like this
e|----15-13-15-16-15-13-15---15-13-15-16-18-16-15--|
B|-13----------------------13----------------------|
G|-------------------------------------------------|

0 reply
LazyLatinoRocke 10 Jan 23, 2010 10:00 PM

Looking back at my previous comment play what I wrote but a step lower (assuming you're in standard)

0 reply
whispery 10 Oct 03, 2016 11:48 AM

didn't like this contribution

guest
You may want to rate the tab now too:
select rating
Wanna post a correction for this tab? Suggest correction