Oops, an error
Loading. Please wait.

Welcome bass

436 views 3 this week
1 commentread comment
1 2 3 4 5
2 more votes to show rating
add to favorites
×
Save as Personal and add changes to this tab that will be seen only by you. Learn more ›
×
You can save this tab as Personal to edit and correct it or add notes. All changes will be seen only by you. Learn more »
launch autoscroll
font size
0
reset
guitar tuner
edit
Autoscroll
slow
fast
+/-
esc
set tempo
stop
Author
Difficulty
Welcome - Bass Tab

Tuning: Standard

Note: This is the bass line for Fort Minor's new song, "Welcome."
It's pretty much the same riff for many parts of the song, but 
I've added the variations from what I could here.  I think 
I'll tab out the electronic solo soon, so keep an eye out for it.

_________________

Key

~  = let ring
x  = mute string
_________________

[0:08-0:25]
[0:42-0:56]
[0:58-1:15]
[1:32-1:46]
[1:48-2:05]
[x2 each time]
G|------------------------------------|
D|-----------7~-----------------------|
A|-8~----------------8--5--5~------x--|
E|------------------------------------|

[Electronic Bridge/Solo]
[2:22-2:55]
[x3]
G|------------------------------------------------------|
D|-----------7~-----------------------------------------|
A|-8~----------------8--5--5~--------5--5~------x----5--|
E|------------------------------------------------------|

[x1]
G|----------------------------------------------|
D|-----------7~---------------------------------|
A|-8~----------------8--5--5~--------5--5~------|
E|----------------------------------------------|

[Final Chorus]
[2:59-3:28]
[x1]
G|------------------------------|
D|------------------------------|
A|-5~--------5--5~------x----5--|
E|------------------------------|

[x2]
G|------------------------------------------------------|
D|-----------7~-----------------------------------------|
A|-8~----------------8--5--5~--------5--5~------x----5--|
E|------------------------------------------------------|

[x1]
G|----------------------------------------------|
D|-----------7~---------------------------------|
A|-8~----------------8--5--5~--------5--5~------|
E|----------------------------------------------|

If there's any confusion, questions, or advice on how to 
improve it, please post a comment. Feel free to check out 
my guitar and bass covers on YouTube.  

https://www.youtube.com/user/Trarrgargra

Have fun playing, and please rate! 

-Rarrlow

            
            
Suggest correction
Creating personal tab
Creating personal tab
You can edit any tab online and save it as your Personal.

You can edit, replace or remove any tab part or add personal notes – all changes will be seen only by you.

Personal tabs can be accessed anytime from any device, even offline.
Learn more »
Give kudos to tab author, rate the tab!
1 2 3 4 5
comments
print report bad tab
1 comment total.
0 reply
jun_cho2901 10 Feb 27, 2016 11:35 AM

Well I am not the best Bass player but from what I was able to see in the video of the song mike is playing:

A:-------------------------------8\5---------------
E:3-3-3-3-3-3-3-3-7-7-7-7-7-7-7-7---0-0-0-0-0-0-0-0

guest
You may want to rate the tab now too:
select rating
Wanna post a correction for this tab? Suggest correction