Oops, an error
Loading. Please wait.

Whered You Go Tab

version 3
version 3
8,284 views 1 this week
3 commentsread comments
1 2 3 4 5
x 3
add to favorites
launch autoscroll
font size
0
reset
how to read this tab
guitar tuner
Autoscroll
slow
fast
+/-
esc
set tempo
stop
Help us to improve Ultimate-Guitar.com Take our survey!
×
Author
Difficulty
novice
-------------------------------------------------------------------------------
                             WHERE'D YOU GO - Fort Minor
-------------------------------------------------------------------------------
Tabbed by: noshfs
Email: linsenl@gmail.com
COPYRIGHT 2006

Tuning: Standard

This is the piano music transcribed for guitar.  There are other tabs using lower frets 
this is more comfortable and fun to play. Enjoy!

e|---------------------------------------------------------------------------|
B|---------------------------------------------------------------------------|
G|--13----13----13----13------11----11----11----11---------------------------|
D|-----14----14----14----14------14----14----14----14------------------------|
A|---------------------------------------------------------------------------|
E|---------------------------------------------------------------------------|

e|---------------------------------------------------------------------------|
B|---------------------------------------------------------------------------|
G|--13----13----13----13------11----11----11----11---------------------------|
D|-----14----14----14----14------14----14----14----14------------------------|
A|---------------------------------------------------------------------------|
E|---------------------------------------------------------------------------|

e|---------------------------------------------------------------------------|
B|---------------------------------------------------------------------------|
G|--13----13----13----13------14----14----14----14---------------------------|
D|-----14----14----14----14------14----14----14---14-------------------------|
A|---------------------------------------------------------------------------|
E|---------------------------------------------------------------------------|
^^^^^^ This part here is played occasionally throughout the song.
e|---------------------------------------------------------------------------|
B|---------------------------------------------------------------------------|
G|--13--13--13--13h14--------------------------------------------------------|
D|---------------------11--11--11--11h13-------------------------------------|
A|---------------------------------------------------------------------------|
E|---------------------------------------------------------------------------|
^^^^^^ This part right here is the little piano interlude towards the end of the song.  
think there is more to it if anyone wants to contribute.

This is a great song for having a simple melody and rhythm to it.  PLease rate!  This is 
first tab.


| /  slide up
| \  slide down
| h  hammer-on
| p  pull-off
| ~  vibrato
| +  harmonic
| x  Mute note
===============================================================================
Suggest correction
Give kudos to tab author, rate the tab!
1 2 3 4 5
comments
print report bad tab
3 comments total.
0 reply
Gundam pilota09 30 Jul 31, 2006 10:41 AM

come on 6 versions and not one right. I'll just put up my version

0 reply
Pyrest 127 Aug 13, 2007 06:21 PM

this is brilliant! how can you say this isnt right?!
i cant belive noone has rated this! 5

0 reply
Mainer 909 Jul 15, 2010 10:09 PM

e--0--0--0--0--0--0--0--0--0--0--
B-9--9--9--9--7--7--7--7--9--9--9-
G-------------------------------
D-------------------------------
A-------------------------------
E-------------------------------

much easier ^^^ but good tab

guest
You may want to rate the tab now too:
select rating
Wanna post a correction for this tab? Suggest correction