Oops, an error
Loading. Please wait.

Spicy Seven tab

16 views 1 this week
no commentswrite comment
1 2 3 4 5
3 more votes to show rating
add to favorites
×
Save as Personal and add changes to this tab that will be seen only by you. Learn more ›
×
You can save this tab as Personal to edit and correct it or add notes. All changes will be seen only by you. Learn more »
launch autoscroll
font size
0
reset
how to read this tab
guitar tuner
edit
Autoscroll
slow
fast
+/-
esc
set tempo
stop
Author
e|------------------------------------------------------------------|
B|------------------------------------------------------------------|
G|---9-------------------------------9------------------------------|
D|-------11--9---------------------------11--9-------9--------------|
A|---------------11--11--11--11--11--------------11------11--9---11-|
E|-0---0---0---0---0---0---0---0---0---0---0---0---0---0---0---0----|


e|-----------------------------------------------------------------------------------|
B|-----------------------------------------------------------------------------------|
G|-----------------------------------------------------------------------------------|
D|--11-11-11-11-11-11-11-11-11-11-11-11-11-9--9--9--9--9--9--9--9--9--9--9--9--9--9--|
A|--11-11-11-11-11-11-11-11-11-11-11-11-11-9--9--9--9--9--9--9--9--9--9--9--9--9--9--|
E|--9--9--9--9--9--9--9--9--9--9--9--9--9--7--7--7--7--7--7--7--7--7--7--7--7--7--7--|


e|------------------------------------------------------------------|
B|------------------------------------------------------------------|
G|---9-------------------------------9-------9--s11--11--11--9------|
D|-------11--9---------------------------11----------------------11-|
A|---------------11--11--11--11--11---------------------------------|
E|-0---0---0---0---0---0---0---0---0---0---0---0---0---0---0---0----|


e|-----------------------------------------------------------------------------------|
B|-----------------------------------------------------------------------------------|
G|-----------------------------------------------------------------------------------|
D|--11-11-11-11-11-11-11-11-11-11-11-11-11-9--9--9--9--9--9--9--9--9--9--9--9--9--9--|
A|--11-11-11-11-11-11-11-11-11-11-11-11-11-9--9--9--9--9--9--9--9--9--9--9--9--9--9--|
E|--9--9--9--9--9--9--9--9--9--9--9--9--9--7--7--7--7--7--7--7--7--7--7--7--7--7--7--|

                                                             Spicy Seven!
e|------------------------------------------------------------------|
B|------------------------------------------------------------------|
G|------------------------------------------------------------------|
D|------------------------------------------------------------------|
A|-11~--------------------------------------------------------------|
E|-0----------------------------------------------------------------|


e|------------------------------------------------------------------|
B|------------------------------------------------------------------|
G|---9-------------------------------9------------------------------|
D|-------11--9---------------------------11--9-------9--------------|
A|---------------11--11--11--11--11--------------11------11--9---11-|
E|-0---0---0---0---0---0---0---0---0---0---0---0---0---0---0---0----|


e|-----------------------------------------------------------------------------------|
B|-----------------------------------------------------------------------------------|
G|-----------------------------------------------------------------------------------|
D|--11-11-11-11-11-11-11-11-11-11-11-11-11-9--9--9--9--9--9--9--9--9--9--9--9--9--9--|
A|--11-11-11-11-11-11-11-11-11-11-11-11-11-9--9--9--9--9--9--9--9--9--9--9--9--9--9--|
E|--9--9--9--9--9--9--9--9--9--9--9--9--9--7--7--7--7--7--7--7--7--7--7--7--7--7--7--|


e|------------------------------------------------------------------|
B|------------------------------------------------------------------|
G|---9-------------------------------9-------9--s11--11--11--9------|
D|-------11--9---------------------------11----------------------11-|
A|---------------11--11--11--11--11---------------------------------|
E|-0---0---0---0---0---0---0---0---0---0---0---0---0---0---0---0----|


e|-----------------------------------------------------------------------------------|
B|-----------------------------------------------------------------------------------|
G|-----------------------------------------------------------------------------------|
D|--11-11-11-11-11-11-11-11-11-11-11-11-11-9--9--9--9--9--9--9--9--9--9--9--9--9--9--|
A|--11-11-11-11-11-11-11-11-11-11-11-11-11-9--9--9--9--9--9--9--9--9--9--9--9--9--9--|
E|--9--9--9--9--9--9--9--9--9--9--9--9--9--7--7--7--7--7--7--7--7--7--7--7--7--7--7--|


e|------------------------------------------------------------------|
B|------------------------------------------------------------------|
G|---9-------------------------------9------------------------------|
D|-------11--9---------------------------11--9-------9--------------|
A|---------------11--11--11--11--11--------------11------11--9---11-|
E|-0---0---0---0---0---0---0---0---0---0---0---0---0---0---0---0----|

e|-----------------------------------------------------------------------------------|
B|-----------------------------------------------------------------------------------|
G|-----------------------------------------------------------------------------------|
D|--11-11-11-11-11-11-11-11-11-11-11-11-11-9--9--9--9--9--9--9--9--9--9--9--9--9--9--|
A|--11-11-11-11-11-11-11-11-11-11-11-11-11-9--9--9--9--9--9--9--9--9--9--9--9--9--9--|
E|--9--9--9--9--9--9--9--9--9--9--9--9--9--7--7--7--7--7--7--7--7--7--7--7--7--7--7--|

e|------------------------------------------------------------------|
B|------------------------------------------------------------------|
G|---9-------------------------------9-------9--s11--11--11--9------|
D|-------11--9---------------------------11----------------------11-|
A|---------------11--11--11--11--11---------------------------------|
E|-0---0---0---0---0---0---0---0---0---0---0---0---0---0---0---0----|

e|-----------------------------------------------------------------------------------|
B|-----------------------------------------------------------------------------------|
G|-----------------------------------------------------------------------------------|
D|--11-11-11-11-11-11-11-11-11-11-11-11-11-9--9--9--9--9--9--9--9--9--9--9--9--9--9--|
A|--11-11-11-11-11-11-11-11-11-11-11-11-11-9--9--9--9--9--9--9--9--9--9--9--9--9--9--|
E|--9--9--9--9--9--9--9--9--9--9--9--9--9--7--7--7--7--7--7--7--7--7--7--7--7--7--7--|


e|-----------------------------------------------------------------------------------|
B|-----------------------------------------------------------------------------------|
G|-----------------------------------------------------------------------------------|
D|--11-11-11-11-11-11-11-11-11-11-11-11-11-9--9--9--9--9--9--9--9--9--9--9--9--9--9--|
A|--11-11-11-11-11-11-11-11-11-11-11-11-11-9--9--9--9--9--9--9--9--9--9--9--9--9--9--|
E|--9--9--9--9--9--9--9--9--9--9--9--9--9--7--7--7--7--7--7--7--7--7--7--7--7--7--7--|


e|--0--0--0--0--0--0--0--0--0--0--0--0--0--0--0--0--0--0--0--0--0--0--0--0--0--0--0--0--|
B|--0--0--0--0--0--0--0--0--0--0--0--0--0--0--0--0--0--0--0--0--0--0--0--0--0--0--0--0--|
G|--1--1--1--1--1--1--1--1--1--1--1--1--1--1--1--1--1--1--1--1--1--1--1--1--1--1--1--1--|
D|--2--2--2--2--2--2--2--2--2--2--2--2--2--2--2--2--2--2--2--2--2--2--2--2--2--2--2--2--|
A|--2--2--2--2--2--2--2--2--2--2--2--2--2--2--2--2--2--2--2--2--2--2--2--2--2--2--2--2--|
E|--0--0--0--0--0--0--0--0--0--0--0--0--0--0--0--0--0--0--0--0--0--0--0--0--0--0--0--0--|


e|--4--4--4--4--4--4--4--4--4--4--4--4--4--4--5--5--5--5--5--5--5--5--5--5--5--5--5--5--|
B|--4--4--4--4--4--4--4--4--4--4--4--4--4--4--5--5--5--5--5--5--5--5--5--5--5--5--5--5--|
G|--5--5--5--5--5--5--5--5--5--5--5--5--5--5--6--6--6--6--6--6--6--6--6--6--6--6--6--6--|
D|--6--6--6--6--6--6--6--6--6--6--6--6--6--6--7--7--7--7--7--7--7--7--7--7--7--7--7--7--|
A|--6--6--6--6--6--6--6--6--6--6--6--6--6--6--7--7--7--7--7--7--7--7--7--7--7--7--7--7--|
E|--4--4--4--4--4--4--4--4--4--4--4--4--4--4--5--5--5--5--5--5--5--5--5--5--5--5--5--5--|


e|--0--0--0--0--0--0--0--0--0--0--0--0--0--0--0--0--0--0--0--0--0--0--0--0--0--0--0--0--|
B|--0--0--0--0--0--0--0--0--0--0--0--0--0--0--0--0--0--0--0--0--0--0--0--0--0--0--0--0--|
G|--1--1--1--1--1--1--1--1--1--1--1--1--1--1--1--1--1--1--1--1--1--1--1--1--1--1--1--1--|
D|--2--2--2--2--2--2--2--2--2--2--2--2--2--2--2--2--2--2--2--2--2--2--2--2--2--2--2--2--|
A|--2--2--2--2--2--2--2--2--2--2--2--2--2--2--2--2--2--2--2--2--2--2--2--2--2--2--2--2--|
E|--0--0--0--0--0--0--0--0--0--0--0--0--0--0--0--0--0--0--0--0--0--0--0--0--0--0--0--0--|


e|--4--4--4--4--4--4--4--4--4--4--4--4--4--4--5~-------------------------------------5--|
B|--4--4--4--4--4--4--4--4--4--4--4--4--4--4--5~-------------------------------------5--|
G|--5--5--5--5--5--5--5--5--5--5--5--5--5--5--6~-------------------------------------6--|
D|--6--6--6--6--6--6--6--6--6--6--6--6--6--6--7~-------------------------------------7--|
A|--6--6--6--6--6--6--6--6--6--6--6--6--6--6--7~-------------------------------------7--|
E|--4--4--4--4--4--4--4--4--4--4--4--4--4--4--5~-------------------------------------5--|


e|------------------------------------------------------------------|
B|------------------------------------------------------------------|
G|---9-------------------------------9------------------------------|
D|-------11--9---------------------------11--9-------9--------------|
A|---------------11--11--11--11--11--------------11------11--9---11-|
E|-0---0---0---0---0---0---0---0---0---0---0---0---0---0---0---0----|


e|-----------------------------------------------------------------------------------|
B|-----------------------------------------------------------------------------------|
G|-----------------------------------------------------------------------------------|
D|--11-11-11-11-11-11-11-11-11-11-11-11-11-9--9--9--9--9--9--9--9--9--9--9--9--9--9--|
A|--11-11-11-11-11-11-11-11-11-11-11-11-11-9--9--9--9--9--9--9--9--9--9--9--9--9--9--|
E|--9--9--9--9--9--9--9--9--9--9--9--9--9--7--7--7--7--7--7--7--7--7--7--7--7--7--7--|


e|------------------------------------------------------------------|
B|------------------------------------------------------------------|
G|---9-------------------------------9-------9--s11--11--11--9------|
D|-------11--9---------------------------11----------------------11-|
A|---------------11--11--11--11--11---------------------------------|
E|-0---0---0---0---0---0---0---0---0---0---0---0---0---0---0---0----|


e|-----------------------------------------------------------------------------------|
B|-----------------------------------------------------------------------------------|
G|-----------------------------------------------------------------------------------|
D|--11-11-11-11-11-11-11-11-11-11-11-11-11-9--9--9--9--9--9--9--9--9--9--9--9--9--9--|
A|--11-11-11-11-11-11-11-11-11-11-11-11-11-9--9--9--9--9--9--9--9--9--9--9--9--9--9--|
E|--9--9--9--9--9--9--9--9--9--9--9--9--9--7--7--7--7--7--7--7--7--7--7--7--7--7--7--|

                                                             Spicy Seven!
e|------------------------------------------------------------------|
B|------------------------------------------------------------------|
G|------------------------------------------------------------------|
D|------------------------------------------------------------------|
A|-11~--------------------------------------------------------------|
E|-0~---------------------------------------------------------------|


e|------------------------------------------------------------------|
B|------------------------------------------------------------------|
G|---9-------------------------------9------------------------------|
D|-------11--9---------------------------11--9-------9--------------|
A|---------------11--11--11--11--11--------------11------11--9---11-|
E|-0---0---0---0---0---0---0---0---0---0---0---0---0---0---0---0----|


e|-----------------------------------------------------------------------------------|
B|-----------------------------------------------------------------------------------|
G|-----------------------------------------------------------------------------------|
D|--11-11-11-11-11-11-11-11-11-11-11-11-11-9--9--9--9--9--9--9--9--9--9--9--9--9--9--|
A|--11-11-11-11-11-11-11-11-11-11-11-11-11-9--9--9--9--9--9--9--9--9--9--9--9--9--9--|
E|--9--9--9--9--9--9--9--9--9--9--9--9--9--7--7--7--7--7--7--7--7--7--7--7--7--7--7--|


e|------------------------------------------------------------------|
B|------------------------------------------------------------------|
G|---9-------------------------------9-------9--s11--11--11--9------|
D|-------11--9---------------------------11----------------------11-|
A|---------------11--11--11--11--11---------------------------------|
E|-0---0---0---0---0---0---0---0---0---0---0---0---0---0---0---0----|


e|-----------------------------------------------------------------------------------|
B|-----------------------------------------------------------------------------------|
G|-----------------------------------------------------------------------------------|
D|--11-11-11-11-11-11-11-11-11-11-11-11-11-9--9--9--9--9--9--9--9--9--9--9--9--9--9--|
A|--11-11-11-11-11-11-11-11-11-11-11-11-11-9--9--9--9--9--9--9--9--9--9--9--9--9--9--|
E|--9--9--9--9--9--9--9--9--9--9--9--9--9--7--7--7--7--7--7--7--7--7--7--7--7--7--7--|


e|------------------------------------------------------------------|
B|------------------------------------------------------------------|
G|---9-------------------------------9------------------------------|
D|-------11--9---------------------------11--9-------9--------------|
A|---------------11--11--11--11--11--------------11------11--9---11-|
E|-0---0---0---0---0---0---0---0---0---0---0---0---0---0---0---0----|

e|-----------------------------------------------------------------------------------|
B|-----------------------------------------------------------------------------------|
G|-----------------------------------------------------------------------------------|
D|--11-11-11-11-11-11-11-11-11-11-11-11-11-9--9--9--9--9--9--9--9--9--9--9--9--9--9--|
A|--11-11-11-11-11-11-11-11-11-11-11-11-11-9--9--9--9--9--9--9--9--9--9--9--9--9--9--|
E|--9--9--9--9--9--9--9--9--9--9--9--9--9--7--7--7--7--7--7--7--7--7--7--7--7--7--7--|

e|------------------------------------------------------------------|
B|------------------------------------------------------------------|
G|---9-------------------------------9-------9--s11--11--11--9------|
D|-------11--9---------------------------11----------------------11-|
A|---------------11--11--11--11--11---------------------------------|
E|-0---0---0---0---0---0---0---0---0---0---0---0---0---0---0---0----|

e|-----------------------------------------------------------------------------------|
B|-----------------------------------------------------------------------------------|
G|-----------------------------------------------------------------------------------|
D|--11-11-11-11-11-11-11-11-11-11-11-11-11-9--9--9--9--9--9--9--9--9--9--9--9--9--9--|
A|--11-11-11-11-11-11-11-11-11-11-11-11-11-9--9--9--9--9--9--9--9--9--9--9--9--9--9--|
E|--9--9--9--9--9--9--9--9--9--9--9--9--9--7--7--7--7--7--7--7--7--7--7--7--7--7--7--|


e|-----------------------------------------------------------------------------------|
B|-----------------------------------------------------------------------------------|
G|-----------------------------------------------------------------------------------|
D|--11-11-11-11-11-11-11-11-11-11-11-11-11-9--9--9--9--9--9--9--9--9--9--9--9--9--9--|
A|--11-11-11-11-11-11-11-11-11-11-11-11-11-9--9--9--9--9--9--9--9--9--9--9--9--9--9--|
E|--9--9--9--9--9--9--9--9--9--9--9--9--9--7--7--7--7--7--7--7--7--7--7--7--7--7--7--|


e|--0--0--0--0--0--0--0--0--0--0--0--0--0--0--0--0--0--0--0--0--0--0--0--0--0--0--0--0--|
B|--0--0--0--0--0--0--0--0--0--0--0--0--0--0--0--0--0--0--0--0--0--0--0--0--0--0--0--0--|
G|--1--1--1--1--1--1--1--1--1--1--1--1--1--1--1--1--1--1--1--1--1--1--1--1--1--1--1--1--|
D|--2--2--2--2--2--2--2--2--2--2--2--2--2--2--2--2--2--2--2--2--2--2--2--2--2--2--2--2--|
A|--2--2--2--2--2--2--2--2--2--2--2--2--2--2--2--2--2--2--2--2--2--2--2--2--2--2--2--2--|
E|--0--0--0--0--0--0--0--0--0--0--0--0--0--0--0--0--0--0--0--0--0--0--0--0--0--0--0--0--|


e|--4--4--4--4--4--4--4--4--4--4--4--4--4--4--5--5--5--5--5--5--5--5--5--5--5--5--5--4--|
B|--4--4--4--4--4--4--4--4--4--4--4--4--4--4--5--5--5--5--5--5--5--5--5--5--5--5--5--4--|
G|--5--5--5--5--5--5--5--5--5--5--5--5--5--5--6--6--6--6--6--6--6--6--6--6--6--6--6--5--|
D|--6--6--6--6--6--6--6--6--6--6--6--6--6--6--7--7--7--7--7--7--7--7--7--7--7--7--7--6--|
A|--6--6--6--6--6--6--6--6--6--6--6--6--6--6--7--7--7--7--7--7--7--7--7--7--7--7--7--6--|
E|--4--4--4--4--4--4--4--4--4--4--4--4--4--4--5--5--5--5--5--5--5--5--5--5--5--5--5--4--|


e|--0--0--0--0--0--0--0--0--0--0--0--0--0--0--0--0--0--0--0--0--0--0--0--0--0--0--0--0--|
B|--0--0--0--0--0--0--0--0--0--0--0--0--0--0--0--0--0--0--0--0--0--0--0--0--0--0--0--0--|
G|--1--1--1--1--1--1--1--1--1--1--1--1--1--1--1--1--1--1--1--1--1--1--1--1--1--1--1--1--|
D|--2--2--2--2--2--2--2--2--2--2--2--2--2--2--2--2--2--2--2--2--2--2--2--2--2--2--2--2--|
A|--2--2--2--2--2--2--2--2--2--2--2--2--2--2--2--2--2--2--2--2--2--2--2--2--2--2--2--2--|
E|--0--0--0--0--0--0--0--0--0--0--0--0--0--0--0--0--0--0--0--0--0--0--0--0--0--0--0--0--|


e|--4--4--4--4--4--4--4--4--4--4--4--4--4--4--5~----------------------------------------|
B|--4--4--4--4--4--4--4--4--4--4--4--4--4--4--5~----------------------------------------|
G|--5--5--5--5--5--5--5--5--5--5--5--5--5--5--6~----------------------------------------|
D|--6--6--6--6--6--6--6--6--6--6--6--6--6--6--7~----------------------------------------|
A|--6--6--6--6--6--6--6--6--6--6--6--6--6--6--7~----------------------------------------|
E|--4--4--4--4--4--4--4--4--4--4--4--4--4--4--5~----------------------------------------|


e|------------------------------------------------------------------|
B|------------------------------------------------------------------|
G|------------------------------------------------------------------|
D|------------------------------------------------------------------|
A|-11~--------------------------------------------------------------|
E|-0~---------------------------------------------------------------|



************************************

| ~  Let Ring
| s  Slide

************************************

            
            
Suggest correction
Creating personal tab
Creating personal tab
You can edit any tab online and save it as your Personal.

You can edit, replace or remove any tab part or add personal notes – all changes will be seen only by you.

Personal tabs can be accessed anytime from any device, even offline.
Learn more »
Give kudos to tab author, rate the tab!
1 2 3 4 5
comments
print report bad tab
guest
You may want to rate the tab now too:
select rating
Wanna post a correction for this tab? Suggest correction