Oops, an error
Loading. Please wait.

On And On bass

25 views 1 this week
no commentswrite comment
1 2 3 4 5
3 more votes to show rating
add to favorites
×
Save as Personal and add changes to this tab that will be seen only by you. Learn more ›
×
You can save this tab as Personal to edit and correct it or add notes. All changes will be seen only by you. Learn more »
launch autoscroll
font size
0
reset
guitar tuner
edit
Autoscroll
slow
fast
+/-
esc
set tempo
stop
Author
Difficulty
Title: On & On
Artist: Fossil Collective
Tabber: Daniel Maly
Tempo = 130
Electric Bass


G|-------|-------|-------|-------|----------------------------|
D|-------|-------|-------|-------|----------------------------|
A|-------|-------|-------|-------|----------------------------|
E|-------|-------|-------|-------|--6--6-----6--6--6-----6----|


G|----------------------------|----------------------------|
D|----------------------------|----------------------------|
A|----------------------------|----------------------------|
E|--6--6-----6--6--6-----6----|--6--6-----6--6--6-----6----|


G|----------------------------||---------------------------|
D|----------------------------||o--------------------------|
A|----------------------------||o--------------------------|
E|--6--6-----6--6--6-----6----||-6--6-----6--6--6-----6----|


G|----------------------------|----------------------------|
D|----------------------------|----------------------------|
A|----------------------------|----------------------------|
E|--6--6-----6--6--6-----6----|--6--6-----6--6--6-----6----|


G|----------------------------|----------------------------|
D|----------------------------|----------------------------|
A|----------------------------|--6--6-----6--6--6-----6----|
E|--6--6-----6--6--6-----6----|----------------------------|


G|----------------------------|----------------------------|
D|----------------------------|----------------------------|
A|----------------------------|--8--8-----8--8--8-----8----|
E|--6--6-----6--6--6-----6----|----------------------------|


G|----------------------------|----------------------------|
D|----------------------------|----------------------------|
A|--8--8-----8--8--8-----8----|--6--6-----6--6--6-----6----|
E|----------------------------|----------------------------|


G|----------------------------|---------------------------||
D|----------------------------|--------------------------o||
A|----------------------------|--------------------------o||
E|--6--6-----6--6--6-----6----|--6--6-----6--6--6-----6---||


G|----------------------------|----------------------------|
D|----------------------------|----------------------------|
A|----------------------------|----------------------------|
E|--6--6-----6--6--6-----6----|--6--6-----6--6--6-----6----|


G|----------------------------|----------------------------|
D|----------------------------|----------------------------|
A|----------------------------|----------------------------|
E|--6--6-----6--6--6-----6----|--6--6-----6--6--6-----6----|


G|----------------------------|----------------------------|
D|----------------------------|----------------------------|
A|--9--9-----9--9--9-----9----|----------------------------|
E|----------------------------|--9--9-----9--9--9-----9----|


G|----------------------------|----------------------------|
D|----------------------------|----------------------------|
A|--8--8-----8--8--8-----8----|----------------------------|
E|----------------------------|--6--6-----6--6--6-----6----|


G|----------------------------|----------------------------|
D|--------------------8-------|----------------------------|
A|-----------------8-----8----|----------------------------|
E|--6--6-----6--6-------------|--6--6-----6--6--6-----6----|


G|----------------------------|----------------------------|
D|--------------------8-------|----------------------------|
A|-----------------8-----8----|----------------------------|
E|--6--6-----6--6-------------|--6--6-----6--6--6-----6----|


G|----------------------------|----------------------------|
D|--8--8--6--6--------6-------|----------------------------|
A|--------------8--8-----8----|--6--6--6--6--6--6-----6----|
E|----------------------------|----------------------------|


G|----------------------------|----------------------------|
D|----------------------------|----------------------------|
A|----------------------------|--8--8-----8--8--8-----8----|
E|--9--9--9--9--9--9-----9----|----------------------------|


G|----------------------------|----------------------------|
D|----------------------------|----------------------------|
A|--6--6-----6--6--6-----6----|--6--6-----6--6--6-----6----|
E|----------------------------|----------------------------|


G|-----8--10-------8--10------|-----8--10-------8--10------|
D|--8--------8--8--------8----|--8--------8--8--------8----|
A|----------------------------|----------------------------|
E|----------------------------|----------------------------|


G|-----8--10-------8--10------|-----8--10-------8--10------|
D|--8--------8--8--------8----|--8--------8--8--------8----|
A|----------------------------|----------------------------|
E|----------------------------|----------------------------|


G|-----8--10-------8--10------|-----8--10-------8--10------|
D|--8--------8--8--------8----|--8--------8--8--------8----|
A|----------------------------|----------------------------|
E|----------------------------|----------------------------|


G|----------------------------|----------------------------|
D|----------------------------|----------------------------|
A|--6--6-----6--6--6-----6----|----------------------------|
E|----------------------------|--6--6-----6--6--6-----6----|


G|----------------------------|----------------------------|
D|----------------------------|----------------------------|
A|--8--8-----8--8--8-----8----|----------------------------|
E|----------------------------|--6--6-----6--6--6-----6----|


G|----------------------------|----------------------------|
D|----------------------------|----------------------------|
A|----------------------------|----------------------------|
E|--6--6-----6--6--6-----6----|--6--6-----6--6--6-----6----|


G|----------------------------|----------------------------|
D|----------------------------|----------------------------|
A|----------------------------|----------------------------|
E|--6--6-----6--6--6-----6----|--6--6-----6--6--6-----6----|


G|----------------------------|----------------------------|
D|----------------------------|----------------------------|
A|--9--9-----9--9--9-----9----|----------------------------|
E|----------------------------|--9--9-----9--9--9-----9----|


G|----------------------------|----------------------------|
D|----------------------------|----------------------------|
A|--8--8-----8--8--8-----8----|----------------------------|
E|----------------------------|--6--6-----6--6--6-----6----|


G|----------------------------|----------------------------|
D|----------------------------|--------------------8-------|
A|----------------------------|-----------------8-----8----|
E|--6--6-----6--6--6-----6----|--6--6-----6--6-------------|


G|----------------------------|----------------------------|
D|----------------------------|--8--8--6--6--------6-------|
A|----------------------------|--------------8--8-----8----|
E|--6--6-----6--6--6-----6----|----------------------------|


G|----------------------------|----------------------------|
D|----------------------------|----------------------------|
A|--6--6--6--6--6--6-----6----|----------------------------|
E|----------------------------|--9--9--9--9--9--9-----9----|


G|----------------------------|----------------------------|
D|----------------------------|----------------------------|
A|--8--8-----8--8--8-----8----|--6--6-----6--6--6-----6----|
E|----------------------------|----------------------------|


G|----------------------------|----------------------------|
D|--------------------8-------|----------------------------|
A|--6--6-----6--6--8-----8----|----------------------------|
E|----------------------------|--6--6-----6--6--6-----6----|


G|----------------------------|----------------------------|
D|----------------------------|----------------------------|
A|----------------------------|----------------------------|
E|--6--6-----6--6--6-----6----|--6--6-----6--6--6-----6----|


G|----------------------------|----------------------------|
D|----------------------------|----------------------------|
A|----------------------------|----------------------------|
E|--6--6-----6--6--6-----6----|--6--6-----6--6--6-----6----|


G|----------------------------|----------------------------|
D|----------------------------|----------------------------|
A|--6--6-----6--6--6-----6----|----------------------------|
E|----------------------------|--6--6-----6--6--6-----6----|


G|----------------------------|----------------------------|
D|----------------------------|----------------------------|
A|--8--8-----8--8--8-----8----|--8--8-----8--8h-6--8h-6----|
E|----------------------------|----------------------------|


G|----------------------------|----------------------------|
D|----------------------------|--------------------8-------|
A|----------------------------|-----------------8-----8----|
E|--6--6-----6--6--6-----6----|--6--6-----6--6-------------|


G|----------------------------|----------------------------|
D|----------------------------|--------------8--8--6-------|
A|----------------------------|-----------------------8----|
E|--6--6-----6--6--6-----6----|--6--6-----6----------------|


G|----------------------------|----------------------------|
D|----------------------------|----------------------------|
A|--6--6-----6--6--6-----6----|----------------------------|
E|----------------------------|--6--6-----6--6--6-----6----|


G|----------------------------|----------------------------|
D|----------------------------|----------------------------|
A|--8--8-----8--8--8-----8----|--8--8-----8--8--8-----8----|
E|----------------------------|----------------------------|


G|----------------------------|----------------------------|
D|----------------------------|----------------------------|
A|--6--6-----6--6--6-----6----|----------------------------|
E|----------------------------|--6--6-----6--6--6-----6----|


G|----------------------------|----------------------------|
D|----------------------------|----------------------------|
A|----------------------------|----------------------------|
E|--6--6-----6--6--6-----6----|--6--6-----6--6--6-----6----|


G|----------------------------|----------------------------|
D|----------------------------|----------------------------|
A|----------------------------|----------------------------|
E|--6--6-----6--6--6-----6----|--6--6-----6--6--6-----6----|


G|----------------------------|----------------------------|
D|----------------------------|----------------------------|
A|----------------------------|--9--9-----9--9--9-----9----|
E|--6--6-----6--6--6-----6----|----------------------------|


G|----------------------------|----------------------------|
D|----------------------------|----------------------------|
A|----------------------------|--8--8-----8--8--8-----8----|
E|--9--9-----9--9--9-----9----|----------------------------|


G|----------------------------|----------------------------|
D|----------------------------|--------------------8-------|
A|----------------------------|-----------------8-----8----|
E|--6--6-----6--6--6-----6----|--6--6-----6--6-------------|


G|----------------------------|----------------------------|
D|----------------------------|--------------------8-------|
A|----------------------------|-----------------8-----8----|
E|--6--6-----6--6--6-----6----|--6--6-----6--6-------------|


G|----------------------------|----------------------------|
D|----------------------------|--8--8--6--6--------6-------|
A|----------------------------|--------------8--8-----8----|
E|--6--6-----6--6--6-----6----|----------------------------|


G|----------------------------|----------------------------|
D|----------------------------|----------------------------|
A|--6--6--6--6--6--6-----6----|----------------------------|
E|----------------------------|--9--9--9--9--9--9-----9----|


G|----------------------------|----------------------------|
D|----------------------------|----------------------------|
A|--8--8-----8--8--8-----8----|--6--6-----6--6--6-----6----|
E|----------------------------|----------------------------|


G|----------------------------|----------------------------|
D|----------------------------|----------------------------|
A|--6--6-----6--8h-6--8h-6----|----------------------------|
E|----------------------------|--6--6-----6--6--6-----6----|


G|----------------------------|-----8--10-------8--10------|
D|----------------------------|--8--------8--8--------8----|
A|----------------------------|----------------------------|
E|--6--6-----6--6--6-----6----|----------------------------|


G|-----8--10-------8--10------|-------|-------|-------|-------------|-------|
D|--8--------8--8--------8----|--6----|--6L---|-------|-------------|-------|
A|----------------------------|-------|-------|--8----|--8L----8s---|--1L---|
E|----------------------------|-------|-------|-------|-------------|-------|


G|-------||
D|-------||
A|--1----||
E|-------||



************************************

| h  Hammer-on
 

************************************

            
            
Suggest correction
Creating personal tab
Creating personal tab
You can edit any tab online and save it as your Personal.

You can edit, replace or remove any tab part or add personal notes – all changes will be seen only by you.

Personal tabs can be accessed anytime from any device, even offline.
Learn more »
Give kudos to tab author, rate the tab!
1 2 3 4 5
comments
print report bad tab
guest
You may want to rate the tab now too:
select rating
Wanna post a correction for this tab? Suggest correction